Home » R » Reckless Kelly »

Reckless Kelly - Wicked Twisted Road Tabs

Artists:  A B C D E F G H I J K L M N O P Q R S T U V W X Y Z # 

Wicked Twisted Road Tabs

(ver. 3) Click to play this song!
Reckless Kelly
Band: Reckless Kelly

*****************************************

Capo 2

Intro:

e---------------------------------------|
B----0--------0---------3---------------|
G---0--0-0---0-----0---0--0-0---0---0---|
D-------2-------0h2--------0---0---0----|
A----------3----------------------------|
E-0------------------3--------3---2-----|


e----0----------------------------------|
B-------------0--------3----------------|
G---0--0-0---0--------0--0-0---0---0----|
D-------2-------0h2-------0---0---0-----|
A----------3----------------------------|
E-0-----------------3--------3---2------|
            
Submit corrections

↑ Back to top | Tablatures and chords for acoustic guitar and electric guitar, ukulele, drums are parodies/interpretations of the original songs. You may use it for private study, scholarship, research or language learning purposes only