Home » R » Reckless Kelly »

Reckless Kelly - Wicked Twisted Road Tabs

Artists:  A B C D E F G H I J K L M N O P Q R S T U V W X Y Z # 

Wicked Twisted Road Tabs

(ver. 2) Click to play this song!
Reckless Kelly
Guitar Solo for "Wicked Twisted Road"
By Reckless Kelly


This is my first tab, be gentle...

NOTE WELL: Totally forgot at first that
this is played with a Capo on 2.  Figured 
if you saw Larry's tab you knew that already
but just thought I'd remind you.  All
frets are relative to the capo.


The guitar solo is divided into 4 
little parts.  The beginning and end
are exactly the same except the last
note.

E----------------------
B-0-0-0-0-0-1-0--------
G-0-0-0-0-0-----2-0-2--
D----------------------
A----------------------
E----------------------

E------------------------------------
B-5p3-3-0h1-1-3-1-0-0h1-1/3-1-1p0-1p0
G------------------------------------
D------------------------------------
A------------------------------------
E------------------------------------

E----2h3-3-3-3h5-3-2-3-2h3-2---------
B----------------------------5-3-3---
G-00----0-0-0---0-0-0-0---0-0-0-0----
D------------------------------------
A------------------------------------
E------------------------------------

E----------------------
B-0-0-0-0-0-1-0--------
G-0-0-0-0-0-----2-0----
D-------------------0--
A----------------------
E----------------------
            
Submit corrections

↑ Back to top | Tablatures and chords for acoustic guitar and electric guitar, ukulele, drums are parodies/interpretations of the original songs. You may use it for private study, scholarship, research or language learning purposes only