Home » R » Rebelution »

Rebelution - Green To Black Tabs

Artists:  A B C D E F G H I J K L M N O P Q R S T U V W X Y Z # 

Green To Black Tabs

(ver. 2) Click to play this song!
Rebelution
(Intro)
-------11-10-8-8-10----------|
--8--8--------------11-10-8--|
-----------------------------|
-----------------------------|
-----------------------------|
-----------------------------|

---------------------8---------|
--8--8-8-11-8-8-8-11---10-6-8--|
-------------------------------|
-------------------------------|
-------------------------------|
-------------------------------|
            
Submit corrections

↑ Back to top | Tablatures and chords for acoustic guitar and electric guitar, ukulele, drums are parodies/interpretations of the original songs. You may use it for private study, scholarship, research or language learning purposes only