Home » R » Rebelution »

Rebelution - Green To Black Bass

Artists:  A B C D E F G H I J K L M N O P Q R S T U V W X Y Z # 

Green To Black Bass

(ver. 2) Click to play this song!
Rebelution
-------------------------------------------------------------------------------
			     GREEN TO BLACK  -  Rebelution
-------------------------------------------------------------------------------


Tuning: Standard

I feel like a note was left out of Stinger12345's tab.


Intro
G|----------------------------------------------------------------------------------|
D|----------------------------------------------------------------------------------|
A|--------------------6-6-6-5-------------------------------------------------------|
E|--3----3----3----3--------------3-------------------------------------------------|



Main Riff
G|---------------------------------------------------------------------------------|
D|--585-5----5---------------------------------------------------------------------|
A|-----8-6----65-------------------------------------------------------------------|
E|---------------853---------------------------------------------------------------|
            
Submit corrections

↑ Back to top | Tablatures and chords for acoustic guitar and electric guitar, ukulele, drums are parodies/interpretations of the original songs. You may use it for private study, scholarship, research or language learning purposes only