Home » R » Rebelution »

Rebelution - Green To Black Bass

Artists:  A B C D E F G H I J K L M N O P Q R S T U V W X Y Z # 

Green To Black Bass

(ver. 1) Click to play this song!
Rebelution
-------------------------------------------------------------------------------
-------------------------------------------------------------------------------


Tuning: Standard

After watching a few videos, I've updated the tab.  It's the same notes, just played in 
a different position.

Intro

G|---------------------------------------------------------------------------|
D|---------------------------------------------------------------------------|
A|------------666-5----------------------------------------------------------|
E|-3--3--3--3----------------------------------------------------------------|

Main line
 Repeat over and over and over
G|---------------------------------------------------------------------------|
D|----585-5------------------------------------------------------------------|
A|-------8-65----------------------------------------------------------------|
E|-3---------86-5------------------------------------------------------------|
            
Submit corrections

↑ Back to top | Tablatures and chords for acoustic guitar and electric guitar, ukulele, drums are parodies/interpretations of the original songs. You may use it for private study, scholarship, research or language learning purposes only