» » »

Razorlight - Who Needs Love Tabs

Artists:  A B C D E F G H I J K L M N O P Q R S T U V W X Y Z # 

Who Needs Love Tabs

(ver. 3) Click to play this song!
Razorlight
 Rating:
4/5 (4 votes)

 Who Needs Love lessons Tabs too difficult? Try these video lessons and learn fast
 
                

this is the main riff all the way through:

e|--0-0-0-0-0-0-0-0-2-2-2-2-2-2-2-2-2-2-2-2-2-2-2-2-0-0-0-0-0-0-0-0-|
B|--2-2-2-2-2-2-2-2-2-2-2-2-2-2-2-2-3-3-3-3-3-3-3-3-0-0-0-0-0-0-0-0-|
G|--2-2-2-2-2-2-2-2-2-2-2-2-2-2-2-2-2-2-2-2-2-2-2-2-1-1-1-1-1-1-1-1-|
D|--2-2-2-2-2-2-2-2-2-2-2-2-2-2-2-0-0-0-0-0-0-0-0-2-2-2-2-2-2-2-2-2-|
A|--------------------------------------------------2-2-2-2-2-2-2-2-|
E|--------------------------------------------------0-0-0-0-0-0-0-0-|

the solo:

e|-----------------------------------------------------------|
B|-----------------------------------------------------------|
G|-----14--16-16b-16-14-11b-11b-----14--16-16b-16-14-11b-11--|b
D|-/14--------------------------/14--------------------------|
A|-----------------------------------------------------------|
E|-----------------------------------------------------------|

e|----------------------------------------|
B|----------------------------------------|
G|-----14-16-16b-16-14-19-18-16b-16-14-14-|
D|-/14------------------------------------|
A|----------------------------------------|
E|----------------------------------------|


bibi
            
Submit corrections


        Who Needs Love lessons Hard to play? Try these video lessons and learn fast Who Needs Love lessons
        
↑ Back to top | Tablatures and chords for acoustic guitar and electric guitar, ukulele, drums are parodies/interpretations of the original songs. You may use it for private study, scholarship, research or language learning purposes only