» » »

Razorlight - Who Needs Love Tabs

Artists:  A B C D E F G H I J K L M N O P Q R S T U V W X Y Z # 

Who Needs Love Tabs

(ver. 2) Click to play this song!
Razorlight
 Rating:
4/5 (4 votes)

 Who Needs Love lessons Tabs too difficult? Try these video lessons and learn fast
 
                Who Needs Love?
Razorlight - Razorlight 2006


Beginning has no guitar, the chords are A, F#m, D, E
when playing without a piano I would advise playing the highest three strings of these 
like this...

e--5-5-5-5-5-5-5-5--2-2-2-2-2-2-2-2-|
B--5-5-5-5-5-5-5-5--2-2-2-2-2-2-2-2-|
G--6-6-6-6-6-6-6-6--2-2-2-2-2-2-2-2-| (x2)
D-----------------------------------|
A-----------------------------------|
E-----------------------------------|

e-2-2-2-2-2-2-2-2--7-7-7-7-7-7-7-7--5-5-5-5-5-5-5-5--2-2-2-2-2-2-2-2-|
B-3-3-3-3-3-3-3-3--9-9-9-9-9-9-9-9--5-5-5-5-5-5-5-5--2-2-2-2-2-2-2-2-|
G-2-2-2-2-2-2-2-2--9-9-9-9-9-9-9-9--6-6-6-6-6-6-6-6--2-2-2-2-2-2-2-2-|
D--------------------------------------------------------------------|
A--------------------------------------------------------------------|
E--------------------------------------------------------------------|
         (and repeat from the beginning)

over the piano you mess around with these power chords...

e-5--5-----7-5-      e-7-7-----9-9----|
B-5----5-------      B-7-7-----9-9----|
G-6------------ (x4) G-7---7---9---9--| (and repeat until solo)
D-7------7-----      D-7----7--9----9-|
A-7------------      A-5-------7------|
E-5------------      E----------------|

solo goes something like this.
(note: if you can octave some of the notes, do it, cuz there may to another guitar 
the same solo an octave lower or something. not sure because I cant find a live video on internet.)
e----------------------------------|
B--------14--12--------------------|
G------14------14-11--h13p11h13p11-| (x2)
D----14----------------------------|
A-s16------------------------------|
E----------------------------------|

e--------------------------------------------17-|
B--------14--12----15-14--12--14p12-------------|
G------14------14-------------------14----------|
D----14-----------------------------------------|
A-s16-------------------------------------------|
E-----------------------------------------------|
  the solo repeats its self later and the end has louder guitar. (the same choards that 
play over the piano)

a second guitar plays this part a lot during the end
e----------------------------------|
B--------14--12--------------------|
G------14------14-11--h13p11h13p11-|
D----14----------------------------|
A-s16------------------------------|
E----------------------------------|
            
Submit corrections


        Who Needs Love lessons Hard to play? Try these video lessons and learn fast Who Needs Love lessons
        
↑ Back to top | Tablatures and chords for acoustic guitar and electric guitar, ukulele, drums are parodies/interpretations of the original songs. You may use it for private study, scholarship, research or language learning purposes only