» » »

Razorlight - In The Morning Tabs

Artists:  A B C D E F G H I J K L M N O P Q R S T U V W X Y Z # 

In The Morning Tabs

(ver. 2) Click to play this song!
Razorlight
 Rating:
4/5 (4 votes)

 In The Morning lessons Tabs too difficult? Try these video lessons and learn fast
 
                E----------------------------------------------------10-----------|
B--13-12-10-----------------------13-12-10------------------------|
G-----------12-11-9------------------------12-11-12-----11-12-----|
D-------------------12-10-9---------------------------------------|
A---------------------------12------------------------------------|
E-----------------------------------------------------------------|

E-----------------------------19----17----14-15----19----17----14-15-14-15--|
B--13-12-10----------------------15----15-------15----15----15--------------|
G-----------12-11-9---------------------------------------------------------|
D-------------------12-10-9-------------------------------------------------|
A---------------------------------------------------------------------------|
E---------------------------------------------------------------------------|
            
Submit corrections


        In The Morning lessons Hard to play? Try these video lessons and learn fast In The Morning lessons
        
↑ Back to top | Tablatures and chords for acoustic guitar and electric guitar, ukulele, drums are parodies/interpretations of the original songs. You may use it for private study, scholarship, research or language learning purposes only