» » »

Razorlight - In The Morning Tabs

Artists:  A B C D E F G H I J K L M N O P Q R S T U V W X Y Z # 

In The Morning Tabs

(ver. 3) Click to play this song!
Razorlight
 Rating:
4/5 (4 votes)

 In The Morning lessons Tabs too difficult? Try these video lessons and learn fast
 
                Brilliant new razorlight song - In the Morning


Intro

   d   d   d   d   d  u  d  u  d  u   d  u  d  u

e|-12--12--12--12--12-12-12-12-12-12--12-12-12-12-|
b|-12--12--12--12--12-12-12-12-12-12--15-12-12-12-|
g|-12--12--12--12--12-12-12-12-12-12--12-12-14-12-|
d|-12--12--12--12--12-12-12-12-12-12--12-12-12-12-|
a|-10--10--10--10--12-12-12-12-12-12--12-12-12-12-|
e|------------------------------------------------|


e|-7----------------------------------10-7-7--7-|
b|-8----------------------------------8--8-10-8-|
g|-9------same rhythm as before-------7--7-7--7-|
d|-9----------------------------------9--9-9--9-|
a|-7----------------------------------7--7-7--7-|
e|----------------------------------------------|


verse is mainly drums+bass with some little fidlly guitar bits,
probably the same chords rippled


little bass fill

e|---------------------------------|
b|---------------------------------|
g|---------------------------------|
d|---------------------------------|
a|-----------------------------5-5-|
e|-5--5--5-5-5-7-7-8--8--8-8-8-----|


ending

e|-7-7-7-7-7--10-7-7--7-|
b|-8-8-8-8-8--8--8-10-8-|
g|-9-9-9-9-7--7--7-7--7-|x2
d|-9-9-9-9-9--9--9-9--9-|
a|-7-7-7-7-7--7--7-7--7-|
e|----------------------|

e|-8--8--8--8--8--8--8--8--8----7-7-7-7-7-7-7-7-7|
b|-8--8--8--8--8--8--8--8--8----7-7-7-7-7-7-7-7-7|
g|-9--9--9--9--9--9--9--9--9----8-8-8-8-8-8-8-8-8|
d|-10-10-10-10-10-10-10-10-10---7-7-7-7-7-7-7-7-7|
a|-10-10-10-10-10-10-10-10-10---9-9-9-9-9-9-9-9-9|
e|-8--8--8--8--8--8--8--8--8----7-7-7-7-7-7-7-7-7|
            
Submit corrections


        In The Morning lessons Hard to play? Try these video lessons and learn fast In The Morning lessons
        
↑ Back to top | Tablatures and chords for acoustic guitar and electric guitar, ukulele, drums are parodies/interpretations of the original songs. You may use it for private study, scholarship, research or language learning purposes only