Home » R » Rascal Flatts »

Rascal Flatts - What Hurts The Most2 Tabs

Artists:  A B C D E F G H I J K L M N O P Q R S T U V W X Y Z # 

What Hurts The Most2 Tabs

(ver. 3) Click to play this song!
Rascal Flatts
 Rating:
4/5 (4 votes)
                Rascal Flatts
"What Hurts The Most"


**Capo 1st Fret**


INTRO:
----------------|
----------------|
----------------|
----------------|
-0-2h-3-2-0-----|
-----------3-0--|


  Em     D(no5) Cadd9
-------------0------------------------|
----0-------3-------3-----------------|
---0-------2-------0------------------|
--2-------0-------2-------------------|
-2---------------3-----0-2h-3-2-0-----|
---------------------------------3-0--|

(2 x's)


1ST VERSE:
*all of the Em's and Cadd9's from the beginning of this verse until the Cadd9 played at 
to cry" are all strummed like the ones shown above.

Em               D(no5)                  Cadd9
 I can take the rain on the roof of this empty house,
             D(NoStrum5)
That don't bother me,
Em                 D(no5)                      Cadd9
 I can take a few tears now and then and just let em out,
    D(NoStrum5)Cadd9
I'm not       afraid to cry every once in awhile,
(D)         Em                                (D)
even though goin on with you gone, still upsets me,
Cadd9
there are days every now and again, I pretend I'm ok,
                  D
But that's a not what gets me


CHORUS:
Em                  D - Cadd9
   What hurts the most,      was being so close,
G                          Cadd9 - D
 and having so much to say,          and watching you walk away,
Em                D - Cadd9
   And never knowin',        what could've been,
G                           D
 And not seein that lovin you, is what I was tryin to do

 Em      D(no5) Cadd9
-------------0-------------------------|
----0-------3-------3------------------|
---0-------2-------0-------------------|
--2-------0-------2--------------------|
-2---------------3-----0-2h-3-2-0------|
----------------------------------3-0--|


2ND VERSE:
Em                             D                     Cadd9
   It's hard to deal with the pain of losin you everywhere I go,
          D
But I'm doin' it,
Em                           D                       Cadd9
   It's hard to force that smile when I see our old friends and I'm alone,
        D
Still harder,
Cadd9                                 (D)
gettin up, gettin dressed, livin with this regret,
    Em                       (D)     Cadd9
But I know if I could do it over,     I would trade, give away
                                                 D
all the words that I saved in my heart that I left unspoken


CHORUS:
Em                  D - Cadd9
   What hurts the most,      is being so close,
G                         Cadd9 - D
 and having so much to say,        and watching you walk away,
Em                D - Cadd9
   And never knowin',        what could've been,
G                           D                   Em      D - Cadd9
 And not seein that lovin you, is what I was tryin to do


(lead)
-----------------|
-----------11-13-|
-/10-12-13-------|
-----------------|
-----------------|
-----------------|

---------------------|
-11------------------|
---13-13-12-12-10-10-|
---------------------|
---------------------|
---------------------|

------------------------------------13-13-13-13/15-16-16-|
----------11/13-13-13-13/16-16-16-16---------------------|
-/10-12/13-----------------------------------------------|
---------------------------------------------------------|
---------------------------------------------------------|
---------------------------------------------------------|

-15-13-----------------------------|
------16-14-13---------------------|
--------------15-13-13/12----------|
--------------------------13-13/15-|
-----------------------------------|
-----------------------------------|

Em                  D - Cadd9
   What hurts the most,      is being so close,
G                         Cadd9 - D                       D#m - Em
 and having so much to say,      and watching you walk away,
Em                D - Cadd9
   And never knowin',        what could've been,
G                           D                 G        Cadd9
 And not seein that lovin you, is what I was tryin to do
                      D
 Not seein that lovin you, that's what I was tryin to do


*start this at the last "do"
 Em      D(no5)  Cadd9                   Em       D(no5)     Cadd9
-------------0--------------------------------------0----------3---|
----0-------3-------3-----------------------0------3-3---------3---|
---0-------2-------0-----------------------0------2---2--------0---|
--2-------0-------2-----------------------2------0-----0-------2---|
-2---------------3-----0-2h-3-2-0--------2---------------------3---|
----------------------------------3-0--------------------------x---|
            
Submit corrections

↑ Back to top | Tablatures and chords for acoustic guitar and electric guitar, ukulele, drums are parodies/interpretations of the original songs. You may use it for private study, scholarship, research or language learning purposes only