Home » R » Rascal Flatts »

Rascal Flatts - I Melt Tabs

Artists:  A B C D E F G H I J K L M N O P Q R S T U V W X Y Z # 

I Melt Tabs

(ver. 3) Click to play this song!
Rascal Flatts
 Rating:
4/5 (4 votes)
                Rascal Flatts, I melt


E--------------------------
B-----5-7-10------7-9-7----
G-5/7---------7h9--------9-
D------------------------9-
A--------------------------
E--------------------------

E------------------7--10p7---------10p7------------
B-----5-7-10--7h10---------10p7---------10p7-------
G-5/7---------------------------9-------------9-7/9
D--------------------------------------------------
A--------------------------------------------------
E--------------------------------------------------

Its not Right but ill get around to fixing 
so please dont rate atm :)
            
Submit corrections

↑ Back to top | Tablatures and chords for acoustic guitar and electric guitar, ukulele, drums are parodies/interpretations of the original songs. You may use it for private study, scholarship, research or language learning purposes only