» » »

Randy Rogers Band - Kiss Me In The Dark - Tabs

Artists:  A B C D E F G H I J K L M N O P Q R S T U V W X Y Z # 

Kiss Me In The Dark - Tabs

(ver. 3) Click to play this song!
Randy Rogers Band
 Rating:
4/5 (4 votes)

 Kiss Me In The Dark - lessons Tabs too difficult? Try these video lessons and learn fast
 
                This is how I'm playing it right now with no capo.  You have to be quick with 
all the doubles, but it beats hiring a second guitarist!
                                                                        
E-------------|----------6-----|--6-8--6-------|--6--6-8--6-------------
B---4-6-4--3--|-----4-6--6--6--|--6-8--6--6-6--|--6--6-8--6--8--6--4----
G---5/7\5--3--|--3--5/7-----7--|---h------5h7--|------h------8--7--5----
D-------------|--5-------------|---------------|------------------------
A-------------|----------------|---------------|------------------------
E-------------|----------------|---------------|------------------------
                                                                        

                                                                        
E------|----------------------------------------------------------------
B---3--|----------------------------------------------------------------
G---3--|--3-3-----------------------------------------------------------
D------|--3h5-----------------------------------------------------------
A------|----------------------------------------------------------------
E------|----------------------------------------------------------------
                                                                        



========================================================================
==                       TABLATURE EXPLANATION                        ==
========================================================================

----------                ----------                ----t---
----5h8--- Hammeron       ----(8)--- Ghost          ----6--- Tap
----------                ---------- Note           --------
----5p8--- Pulloff        ----------                --------

----------                ----------                -----p--
----5/8--- Slide Up       -----x---- Dead           -----7-- Pop
----------                ---------- Note           --s-----
----5\8--- Slide Down     ----------                --5----- Slap 

----------                ||------|| Repeat         --------
----5~~~-- Vibrato        ||*----*||                ---5^--- Bend
----------                ||*----*||                --------
----------                ||------||                --------

----------                ----------                --------
-4:------- Time           ----------                --------
-4:------- Signature      ----------                --------
----------                ----------                --------

Rhythm:
  w = whole note            W = dotted whole
  h = half note             H = dotted half
  q = quarter note          Q = dotted quarter
  e = eighth note           E = dotted eighth
  s = sixteenth note        S = dotted sixteenth
  t = 32nd note             T = dotted 32nd
  x = 64th note             X = dotted 64th
  ^ = triplet

========================================================================
==               Created with BUCKET O' TAB for Windows               ==
==                  For more info email gse at his.com                   ==
========================================================================
            
Submit corrections


        Kiss Me In The Dark - lessons Hard to play? Try these video lessons and learn fast Kiss Me In The Dark - lessons
        
↑ Back to top | Tablatures and chords for acoustic guitar and electric guitar, ukulele, drums are parodies/interpretations of the original songs. You may use it for private study, scholarship, research or language learning purposes only