» » »

Randy Rogers Band - Kiss Me In The Dark - Tabs

Artists:  A B C D E F G H I J K L M N O P Q R S T U V W X Y Z # 

Kiss Me In The Dark - Tabs

(ver. 2) Click to play this song!
Randy Rogers Band
 Rating:
4/5 (4 votes)

 Kiss Me In The Dark - lessons Tabs too difficult? Try these video lessons and learn fast
 
                e --------------------------3-1----------3-1-----------------
B --p4/6--------p4/6--6-----3-1--6-6-----3-1--p3h4-3---------
G --p5/7-5-3----p5/7--7-5-3------7-7-5-3-------------5-3-----
D ----------5--------------------------------------------5-3-
A -----------------------------------------------------------
E -----------------------------------------------------------

e --------------------3-1----------3-1----------------------------
B --3---------6-6-----3-1--6-6-----3-1-3h4-3----------------------
G ----5-3-2---7-7-5-3------7-7-5-3-----------5-3------------------
D ---------5-------------------------------------5-3--------------
A ---------------------------------------------------3h5-3-1-3----
E ------------------------------------------------------------3---
            
Submit corrections


        Kiss Me In The Dark - lessons Hard to play? Try these video lessons and learn fast Kiss Me In The Dark - lessons
        
↑ Back to top | Tablatures and chords for acoustic guitar and electric guitar, ukulele, drums are parodies/interpretations of the original songs. You may use it for private study, scholarship, research or language learning purposes only