» » »

Randy Rogers Band - Buy Myself A Chance Tabs

Artists:  A B C D E F G H I J K L M N O P Q R S T U V W X Y Z # 

Buy Myself A Chance Tabs

(ver. 1) Click to play this song!
Randy Rogers Band
 Rating:
4/5 (4 votes)

 Buy Myself A Chance lessons Tabs too difficult? Try these video lessons and learn fast
 
                (Intro)
No Capo
Standard tuning
Lead guitar:
e|---------------------------------------------------------------|
B|---------------------------------------------------------------|
G|---------------------------------------------------------------|
D|---------2---------------------2---------------------2(hold)---|
A|-------2---2h4(hold)-------------4-2---2h4---4p2-4p2-----------|
E|--00-4--------------------2b-0-------4-------------------------| x2

e|---------------------------------------------------------------|
B|---------------------------------------------------------------|
G|---------------------------------------------------------------|
D|---------2-----------------------------------------------------|
A|-------2---2h4(hold)-------------------------------------------|
E|--00-4---------------------------------------------------------|

Rhythm Guitar:
C#m, E, C#m, E x2 

Strumming Pattern (BN= Base note (pm)= Palm Mute)- 
BN, D(pm), BN, D, U, D, U

C#m - x46654 or x42120 (BN in this chord is A string 4th fret)
E -   022100 (BN in this chord is low E string open)


-Parker Mathews
            
Submit corrections


        Buy Myself A Chance lessons Hard to play? Try these video lessons and learn fast Buy Myself A Chance lessons
        
↑ Back to top | Tablatures and chords for acoustic guitar and electric guitar, ukulele, drums are parodies/interpretations of the original songs. You may use it for private study, scholarship, research or language learning purposes only