» » »

Randy Rogers Band - Buy Myself A Chance Tabs

Artists:  A B C D E F G H I J K L M N O P Q R S T U V W X Y Z # 

Buy Myself A Chance Tabs

(ver. 2) Click to play this song!
Randy Rogers Band
 Rating:
4/5 (4 votes)

 Buy Myself A Chance lessons Tabs too difficult? Try these video lessons and learn fast
 
                


Here's the intro/outro for Buy Myself A Chance.  It sounds like Geoffrey is using
a tele, but the same sound can probably be achieved using your treble pickup with
very little overdrive.  If anyone wants the guitar "fills" for this song, just 
let me know.  Questions or comments are welcome, long live Texas Country!

h = hammer on
/ = slide up
b = bend string



Play this twice:

e|--------------------------------------------------------------|
B|--------------------------------------------------------------|
G|--------------------------------------------------------------|
D|------------2----------------------------2--------------------|
A|----------2---2/4--------------------------4-2--2/4----4-6-7--|
E|-0-0--2h4----------------2b--0--------------------------------|

Then play this:

e|--------------------------------------------------------------|
B|--------------------------------------------------------------|
G|--------------------------------------------------------------|
D|------------2-------------------------------------------------|
A|----------2---2/4---------------------------------------------|
E|-0-0--2h4-----------------------------------------------------|
            
Submit corrections


        Buy Myself A Chance lessons Hard to play? Try these video lessons and learn fast Buy Myself A Chance lessons
        
↑ Back to top | Tablatures and chords for acoustic guitar and electric guitar, ukulele, drums are parodies/interpretations of the original songs. You may use it for private study, scholarship, research or language learning purposes only