» » »

Racoon - Laugh About It Tabs

Artists:  A B C D E F G H I J K L M N O P Q R S T U V W X Y Z # 

Laugh About It Tabs

(ver. 2) Click to play this song!
Racoon
 Rating:
4.6/5 (11 votes)

 Laugh About It lessons Tabs too difficult? Try these video lessons and learn fast
 
                

Racoon - Laugh about it 

Tune guitar one step down

Intro:
  G          Am         Bm         C     D     Gsus2
|--------------------------------------------------7------8p7----10---------7------8p7----7----|
|-0------1---1------3---3------5---5-----7-----8-------8----------------8-------8--------------|
|-----0---0------0---0------0---0-----0-----0-----0---0-------0------0-----0---0-------0-----0-|
|----0----------0----------0-------------------------------------------------------------------|
|------------0----------2----------3-----5-----7------------------------7----------------------|
|-3--------------------------------------------------------------------------------------------|

  G          Am         Bm         C     D     Gsus2
|--------------------------------------------------7------8p7----10---------7------8p7----7----|
|-0------1---1------3---3------5---5-----7-----8-------8----------------8-------8--------------|
|-----0---0------0---0------0---0-----0-----0-----0---0-------0------0-----0---0-------0-----0-|
|----0----------0----------0-------------------------------------------------------------------|
|------------0----------2----------3-----5-----7------------------------7----------------------|
|-3--------------------------------------------------------------------------------------------|

Verse 1:
  G          Am         Bm         C     D     Gsus2
|--------------------------------------------------7------8p7----10---------7------8p7----7----|
|-0------1---1------3---3------5---5-----7-----8-------8----------------8-------8--------------|
|-----0---0------0---0------0---0-----0-----0-----0---0-------0------0-----0---0-------0-----0-|
|----0----------0----------0-------------------------------------------------------------------|
|------------0----------2----------3-----5-----7------------------------7----------------------|
|-3--------------------------------------------------------------------------------------------|
  Can you give me solid ground 'cause all my footstpes turn me down,       one by one.  
  
  G          Am         Bm         C     D     Gsus2
|--------------------------------------------------7------8p7----10---------7------8p7----7----|
|-0------1---1------3---3------5---5-----7-----8-------8----------------8-------8--------------|
|-----0---0------0---0------0---0-----0-----0-----0---0-------0------0-----0---0-------0-----0-|
|----0----------0----------0-------------------------------------------------------------------|
|------------0----------2----------3-----5-----7------------------------7----------------------|
|-3--------------------------------------------------------------------------------------------|
  Can you give me free advise, I don't know if I can,   but I'll try to listen.

  G          Am         Bm         C     D     Gsus2
|--------------------------------------------------7------8p7----10---------7------8p7----7----|
|-0------1---1------3---3------5---5-----7-----8-------8----------------8-------8--------------|
|-----0---0------0---0------0---0-----0-----0-----0---0-------0------0-----0---0-------0-----0-|
|----0----------0----------0-------------------------------------------------------------------|
|------------0----------2----------3-----5-----7------------------------7----------------------|
|-3--------------------------------------------------------------------------------------------|
  And I can blast friendship to hell or I can try to make things better, 
                                                         believe me that I'll make things better.

  G          Am         Bm         C     D     Gsus2
|--------------------------------------------------7------8p7----10---------7------8p7----7----|
|-0------1---1------3---3------5---5-----7-----8-------8----------------8-------8--------------|
|-----0---0------0---0------0---0-----0-----0-----0---0-------0------0-----0---0-------0-----0-|
|----0----------0----------0-------------------------------------------------------------------|
|------------0----------2----------3-----5-----7------------------------7----------------------|
|-3--------------------------------------------------------------------------------------------|
  But they change the rules when it's my turn so they can laugh and watch me burn.

Chorus:
  G        Gsus2              D
|----3--7--8-----7-----5---------7-----5-------|
|--3----------8-----8-----8---------8-----8S3--|
|---0----------------------7--7----------------|
|----------------------------------------------|
|----------------------------------------------|
|-3--------------------------------------------|
  I can laugh about it.

  G        Gsus2              D
|----3--7--8-----7-----5---------7-----5-------|
|--3----------8-----8-----8---------8-----8S3--|
|---0----------------------7--7----------------|
|----------------------------------------------|
|----------------------------------------------|
|-3--------------------------------------------|
  Or I can cry about it.

  G        Gsus2              D 
|----3--7--8-----7-----5---------7-----5-------|
|--3----------8-----8-----8---------8-----8----|
|---0----------------------7--7----------------|
|----------------------------------------------|
|----------------------------------------------|
|-3--------------------------------------------|
  But I should ignore the words you say, cause they can hurt but won't kill me.

  G/c
|----------7------------|
|----8------------------|
|---7---7-----7------7--|
|----------------10-----|
|-----------------------|
|-8---------------------|
  They can hurt but won't kill me.

Verse 2:
  G          Am         Bm         C     D     Gsus2
|--------------------------------------------------7------8p7----10---------7------8p7----7----|
|-0------1---1------3---3------5---5-----7-----8-------8----------------8-------8--------------|
|-----0---0------0---0------0---0-----0-----0-----0---0-------0------0-----0---0-------0-----0-|
|----0----------0----------0-------------------------------------------------------------------|
|------------0----------2----------3-----5-----7------------------------7----------------------|
|-3--------------------------------------------------------------------------------------------|
                                   They can hurt but won't kill me.

  G          Am         Bm         C     D     Gsus2
|--------------------------------------------------7------8p7----10---------7------8p7----7----|
|-0------1---1------3---3------5---5-----7-----8-------8----------------8-------8--------------|
|-----0---0------0---0------0---0-----0-----0-----0---0-------0------0-----0---0-------0-----0-|
|----0----------0----------0-------------------------------------------------------------------|
|------------0----------2----------3-----5-----7------------------------7----------------------|
|-3--------------------------------------------------------------------------------------------|
  But a fist full of the things you love, life's a quiz so cough it up, go on and cough it up now.

  G          Am         Bm         C     D     Gsus2
|--------------------------------------------------7------8p7----10---------7------8p7----7----|
|-0------1---1------3---3------5---5-----7-----8-------8----------------8-------8--------------|
|-----0---0------0---0------0---0-----0-----0-----0---0-------0------0-----0---0-------0-----0-|
|----0----------0----------0-------------------------------------------------------------------|
|------------0----------2----------3-----5-----7------------------------7----------------------|
|-3--------------------------------------------------------------------------------------------|
  When the future's far away, it's always better than today.          yeah

  G          Am         Bm         C     D     Gsus2
|--------------------------------------------------7------8p7----10---------7------8p7----7----|
|-0------1---1------3---3------5---5-----7-----8-------8----------------8-------8--------------|
|-----0---0------0---0------0---0-----0-----0-----0---0-------0------0-----0---0-------0-----0-|
|----0----------0----------0-------------------------------------------------------------------|
|------------0----------2----------3-----5-----7------------------------7----------------------|
|-3--------------------------------------------------------------------------------------------|
  And everytime I'm having fun there's something I'm doing wrong.

  G          Am         Bm         C     Bm    A7                 G#
|------------------------------------------------------------------------------------|
|-0------1---1------3---3------5---5-----3-----2--2----2----2------------------------|
|-----0---0------0---0------0---0-----0-----0----0----0---2----------5----5----5-----|
|----0----------0----------0--------------------2----2-----0--------6----6---6-------|
|------------0----------2----------3-----2-----0---------------0---6----6-----6------|
|-3---------------------------------------------------------------4---------------4--|
  And all these warning lights are lit, but always after you need it. Yeah well anyway.

Chorus:
  G        Gsus2              D
|----3--7--8-----7-----5---------7-----5-------|
|--3----------8-----8-----8---------8-----8S3--|
|---0----------------------7--7----------------|
|----------------------------------------------|
|----------------------------------------------|
|-3--------------------------------------------|
  I can laugh about it, yeah I'd better try to laugh.

  G        Gsus2              D
|----3--7--8-----7-----5---------7-----5-------|
|--3----------8-----8-----8---------8-----8S3--|
|---0----------------------7--7----------------|
|----------------------------------------------|
|----------------------------------------------|
|-3--------------------------------------------|
  Or I can cry abhout it, you know you'll never see me cry.

  G        Gsus2              D
|----3--7--8-----7-----5---------7-----5-------|
|--3----------8-----8-----8---------8-----8----|
|---0----------------------7--7----------------|
|----------------------------------------------|
|----------------------------------------------|
|-3--------------------------------------------|
  I should ignore the words you say, but they can hurt but won't kill me.

  G/c
|----------7------------|
|----8------------------|
|---7---7-----7------7--|
|----------------10-----|
|-----------------------|
|-8---------------------|
  'Cause they can hurt but won't kill me.

Verse 3:
  G          Am         Bm         C     D     Gsus2
|--------------------------------------------------7------8p7----10---------7------8p7----7----|
|-0------1---1------3---3------5---5-----7-----8-------8----------------8-------8--------------|
|-----0---0------0---0------0---0-----0-----0-----0---0-------0------0-----0---0-------0-----0-|
|----0----------0----------0-------------------------------------------------------------------|
|------------0----------2----------3-----5-----7------------------------7----------------------|
|-3--------------------------------------------------------------------------------------------|
                                   They can hurt, but they won't kill me.

  G          Am         Bm         C     D     Gsus2
|--------------------------------------------------7------8p7----10---------7------8p7----7----|
|-0------1---1------3---3------5---5-----7-----8-------8----------------8-------8--------------|
|-----0---0------0---0------0---0-----0-----0-----0---0-------0------0-----0---0-------0-----0-|
|----0----------0----------0-------------------------------------------------------------------|
|------------0----------2----------3-----5-----7------------------------7----------------------|
|-3--------------------------------------------------------------------------------------------|

  G          Am         Bm         C     D     Gsus2
|-------------------------------------------3---2------3p2-0-------2------3p2-0--|
|-0------1---1------3---3------5---5-----7----------0----------0-------0---------|
|-----0---0------0---0------0---0-----0--------0---0------0---0---0---0------0---|
|----0----------0----------0-----------------------------------------------------|
|------------0----------2----------3-----5---------------------------------------|
|-3-----------------------------------------0----------0------------------0------|


Chorus:
  G        Gsus2              D
|----3--7--8-----7-----5---------7-----5-------|
|--3----------8-----8-----8---------8-----8S3--|
|---0----------------------7--7----------------|
|----------------------------------------------|
|----------------------------------------------|
|-3--------------------------------------------|
  So I can laugh about it, yeah I'd better try to laugh.

  G        Gsus2              D
|----3--7--8-----7-----5---------7-----5-------|
|--3----------8-----8-----8---------8-----8S3--|
|---0----------------------7--7----------------|
|----------------------------------------------|
|----------------------------------------------|
|-3--------------------------------------------|
  Oh I cab cry about it, you know you'll never see me cry. 

  G        Gsus2              D
|----3--7--8-----7-----5---------7-----5-------|
|--3----------8-----8-----8---------8-----8----|
|---0----------------------7--7----------------|
|----------------------------------------------|
|----------------------------------------------|
|-3--------------------------------------------|
  I should ignore the words you say, 'cause they can hurt but won't kill me.

Outro:
  G/c                  G/b                    Dsus4/a#                                      G
|-----------7--------------------7----------------------5-----------5-----------5-----------7-|
|-----8----------8---------8-----------8----------8-----------8-----------8--------8-----8--8-|
|----7---7----7-----7-----7---7-----7-----7------7---7-----7-----7-----7-----7--------7-----7-|
|-------------------------------------------------------------------------------------------0-|
|---------------------------------------------------------------------------------------------|
|-8--------------------7----------------------6---------------------------------------------7-|
  'Cause they can hurt but won't kill me,           no they won't kill me.
            
Submit corrections


        Laugh About It lessons Hard to play? Try these video lessons and learn fast Laugh About It lessons
        
↑ Back to top | Tablatures and chords for acoustic guitar and electric guitar, ukulele, drums are parodies/interpretations of the original songs. You may use it for private study, scholarship, research or language learning purposes only