Home » R » Racoon »

Racoon - Laugh About It Tabs

Artists:  A B C D E F G H I J K L M N O P Q R S T U V W X Y Z # 

Laugh About It Tabs

(ver. 4) Click to play this song!
Racoon
[Intro] 
D#|-----------------------------------------|
A#|-0-----1--1-----3--3-----5--5---7--------|
F#|---0--------0--------0--------0---0------|
C#|-----0--------0--------0-----------------|
G#|----------0--------2--------3---5--------|
D#|-3---------------------------------------|

D#|----7------8p7---10------7------8p7---7--|
A#|-8-----8-------8------8-----8-------8----|
F#|---------0--------------------0----------|
C#|-----------------------------------------|
G#|-7--------------------7------------------|
D#|-----------------------------------------|            
Submit corrections

↑ Back to top | Tablatures and chords for acoustic guitar and electric guitar, ukulele, drums are parodies/interpretations of the original songs. You may use it for private study, scholarship, research or language learning purposes only