» » »

Puscifer - The Humbling River Tabs

Artists:  A B C D E F G H I J K L M N O P Q R S T U V W X Y Z # 

The Humbling River Tabs

(ver. 3) Click to play this song!
Puscifer
 Rating:
4/5 (4 votes)

 The Humbling River lessons Tabs too difficult? Try these video lessons and learn fast
 
                
This is the correct way to play the song. The other versions are basically correct
however they are a half step down from how the song should be played. This is a half
step up
Maynard is going to sing in B flat...more like A or D like every Tool song ever written.
Also I'm using the open G string instead of the 5th fret on the D string because it
sounds like the guitar in the song actually is hitting the open G.If you want you can play
the G note on the D string 5th fret, you have to reach a little bit and it looks way 
cooler playing it, however it doesn't quite have the right sound to it.

The Song
E|----------------------------------------------------------------|
B|----------------------------------------------------------------|
G|----0----0-----------0-----0-----0---------0-----0----------0---|
D|----------------------------------------------------------------|
A|5-----------5---1---------------------------------------1-------|
E|------------------------3-----------3---3-----------3-----------|


E|----------------------------------------------------------------|
B|----------------------------------------------------------------|
G|--0---------0-------0-----0---------0-----0---------0-----0-----|
D|----------------------------------------------------------------|
A|----1---3---------------------------------------5-----------5---|
E|----------------3-----------3---3-----------3-------------------|

E|----------------------------------------------------------------|
B|----------------------------------------------------------------|
G|----0-------0-----0---------0-----0---------0-----0---------0---|
D|----------------------------------------------------------------|
A|1---------------------------------------------------------------|
E|--------3-----------3---3-----------3---1-----------1---3-------|

E|------------------------|
B|------------------------|
G|--0---------0-----0-----|
D|------------------------|
A|------------------------|
E|----3---3-----------3---|
            
Submit corrections


        The Humbling River lessons Hard to play? Try these video lessons and learn fast The Humbling River lessons
        
↑ Back to top | Tablatures and chords for acoustic guitar and electric guitar, ukulele, drums are parodies/interpretations of the original songs. You may use it for private study, scholarship, research or language learning purposes only