» » »

Puscifer - Horizons Tabs

Artists:  A B C D E F G H I J K L M N O P Q R S T U V W X Y Z # 

Horizons Tabs

(ver. 1) Click to play this song!
Puscifer
 Rating:
4/5 (4 votes)

 Horizons lessons Tabs too difficult? Try these video lessons and learn fast
 
                                             Puscifer- "Horizons"


Intro

e -----------------\--------------\
B --------------3--\--------------\
G --4---4---4------\-----4--------\
D -4-4-4-4-4-4-4---\----4-4---10x-\
A 2---2---2---2----\---2----------\
E -----------------\--------------\

Verse

e -------------------------------------------------------------0--|
B ----3--------3-------3-----3----------3------3--------3---------|
G --4--------4-------0-----0----------4------4--------0-----------|
D -4-4------4-4-----0-0---0-0----2---4-4----4-4------0-0-----2----|
A 2-------22--------------------2---2-----22----------------2-2---|
E ---------------3-3-----3-----0------------------3-3------0------|

Bridge

e -----------------------------------|
B ----3-------3-------2-------2------|
G --0--0-0--0--0-0--3--3-3--3--3-3---|
D -0-0--0--0-0--0--4-4--4--4-4--4----|
A -----------------------------------|
E 3-------3-------2-------2----------|

Chorus

e ------------------------------------------------- Repeat first 2-|
B ----3-------3-------3-------3-------2-------2--------------------| chords 1x and end
G --4--4-4--4--4-4--0--0-0--0--0-0--3--3-3--3--3-3-----------------| with an F# strum
D -4-4--4--4-4--4--0-0--0--0-0--0--4-4--4--4-4--4------------------|
A 2-------2----------------------------------------   -2-----------|
E ----------------3-------3-------2-------2--------   -2-----------|
                                                      -3-
                                                      -4-
                                                      -4-
                                                      -2-

Repeat Verse 1x
Repeat Bridge 1x
Repeat Chorus 1x

Play
e -------|
B -------|
G --4----| 30x
D -4-4---|
A 2------|
E -------|

Repeat Bridge 1x
Repeat Chorus 1x
            
Submit corrections


        Horizons lessons Hard to play? Try these video lessons and learn fast Horizons lessons
        
↑ Back to top | Tablatures and chords for acoustic guitar and electric guitar, ukulele, drums are parodies/interpretations of the original songs. You may use it for private study, scholarship, research or language learning purposes only