» » »

Puscifer - Momma Sed Tabs

Artists:  A B C D E F G H I J K L M N O P Q R S T U V W X Y Z # 

Momma Sed Tabs

(ver. 1) Click to play this song!
Puscifer
 Rating:
4/5 (11 votes)

 Momma Sed lessons Tabs too difficult? Try these video lessons and learn fast
 
                This is my first ever so... it's kinda lika a monumental thing happening here. please rate!

Drop D tuning eBGDAD

h=hammer on
p=pull off
/=slide

Intro
e|-----------------|-----------------|
B|-----------------|-----------------|
G|---0h1p0---------|-----------------|
D|---------h3-1-3--|-1-3-1p0---------|
A|-----------------|---------1-3-----|
D|-3---------------|-------------6---|

Verse
e|------------------------|
B|------------------------|
G|------------------------|
D|-3-X-1-1-1-1-1h3-X-1-1--|
A|-3-X-1-1-1-1-1h3-X-1-1--|
D|-3-X-1-1-1-1-1h3-X-1-1--|

Break
e|------------------|
B|------------------|
G|-1-X-1-1-1-1-1-1--|
D|-1-X-1-1-1-1-1-1--|
A|-1-X-1-1-1-1-1-1--|
D|-1-X-1-1-1-1-1-1--|

"Changes come..."
e|----------------|
B|----------------|
G|-5-/-8-/-3-/-5--|
D|-3-/-6-/-1-/-3--|
A|-3-/-6-/-1-/-3--|
D|-3-/-6-/-1-/-3--|

It may not be perfect but I think it's more detailed than the other 2 tabs.
            
Submit corrections


        Momma Sed lessons Hard to play? Try these video lessons and learn fast Momma Sed lessons
        
↑ Back to top | Tablatures and chords for acoustic guitar and electric guitar, ukulele, drums are parodies/interpretations of the original songs. You may use it for private study, scholarship, research or language learning purposes only