Home » P » Portal »

Portal - Still Alive Bass

Artists:  A B C D E F G H I J K L M N O P Q R S T U V W X Y Z # 

Still Alive Bass

(ver. 2) Click to play this song!
Portal
-------------------------------------------------------------------------------
			     Still Alive - Valve (Portal Game)
-------------------------------------------------------------------------------


Tuning: Standard

(0:44)
G|---------------------------------------------------------------------------|
D|---------------------------------------------------------------------------|
A|---17\5-----5--------5----5--------5----5--------5----5--------------------|
E|--------------7----7--------7----7--------7----7--------7------------------|

(0:52)
G|---------------------------------------------------------------------------|
D|---------------------------------------------------------------------------|
A|--12---121212-9--5---5--------5----5--------5----5--------5----5-----------|
E|-----------------------7----7--------7----7--------7----7--------7---------|

(1:01) The song is played like this
G|---------------------------------------------------------------------------|
D|---------------------------------------------------------------------------|
A|---7---77910------------5----5--------5------------------------------------|
E|-7------------5--5--79---------7----7-----7--------------------------------|

----OR----
(1:01) I think it sounds better like this
G|---------------------------------------------------------------------------|
D|---------------------------------------------------------------------------|
A|---7--7----77910---4--5-7------9-------------------------------------------|
E|-7------------------------5-7----------------------------------------------|

(1:07)
G|---------------------------------------------------------------------------|
D|---------------------------------------------------------------------------|
A|--12---121212-9--5---5--------5----5--------5----5--------5----5-----------|
E|-----------------------7----7--------7----7--------7----7--------7---------|

(1:17) Again, this can be played either way
G|---------------------------------------------------------------------------|
D|---------------------------------------------------------------------------|
A|---7---77910------------5----5--------5------------------------------------|
E|-7------------5--5--79---------7----7-----7--------------------------------|

----OR----
(1:17)
G|---------------------------------------------------------------------------|
D|---------------------------------------------------------------------------|
A|---7--7----77910---4--5-7------9-------------------------------------------|
E|-7------------------------5-7----------------------------------------------|

(1:21) PRE-CHORUS (This is probably off, but you can figure it out)
G|---------------------------------------------------------------------------|
D|---------------------------------------------------------------------------|
A|---55----5---------55----5---------55--------------------------------------|
E|-7---------77----7---------77----7-----------------------------------------|

(1:31) CHORUS (Might also be off)
G|---------------------------------------------------------------------------|
D|---------------------------------------------------------------------------|
A|----------------77---55---44----------5----5--------5----5--------5----5---|
E|-5555----7777------------------5--78---------7----7--------7----7--------7-|

(1:44)
G|---------------------------------------------------------------------------|
D|---------------------------------------------------------------------------|
A|--12---121212-9--5---REST AT 1:45------------------------------------------|
E|---------------------------------------------------------------------------|


(2:00)
G|---------------------------------------------------------------------------|
D|---------------------------------------------------------------------------|
A|-5----5--------5----5--------5----5--------5----5--------------------------|
E|--------7----7--------7----7--------7----7--------7--7---------------------|

(2:08) Song version
G|---------------------------------------------------------------------------|
D|---------------------------------------------------------------------------|
A|---7---77910------------5----5--------5------------------------------------|
E|-7------------5--5--79---------7----7-----7--------------------------------|

----OR----
(2:08) My version
G|---------------------------------------------------------------------------|
D|---------------------------------------------------------------------------|
A|---7--7----77910---4--5-7------9-------------------------------------------|
E|-7------------------------5-7----------------------------------------------|


(2:13) PRE-CHORUS
G|---------------------------------------------------------------------------|
D|---------------------------------------------------------------------------|
A|---55----5---------55----5---------55--------------------------------------|
E|-7---------77----7---------77----7-----------------------------------------|


(2:22) CHORUS
G|---------------------------------------------------------------------------|
D|---------------------------------------------------------------------------|
A|----------------77---55---44----------5----5--------5----5--------5----5---|
E|-5555----7777------------------5--78---------7----7--------7----7--------7-|


(2:29)
G|------------------------------------------------------------------------------------------|
D|------------------------------------------------------------------------------------------|
A|-5----5--------5----5--------5----5--------5--------12---121212-9--5----5---------5----5--|
E|--------7----7--------7----7--------7----7-----7---------------------------7----7--------7|

(2:40)                                   |---------FADE OUT---------|
G|---------------------------------------------------------------------------|
D|---------------------------------------------------------------------------|
A|-5--------5----5------12-121212-9--5----5--------5----5--------5-----------|
E|---7----7--------7------------------------7----7--------7----7-------------|

FEEL FREE TO SEND ME CORRECTIONS ON THIS TAB

| /  slide up
| \  slide down
| h  hammer-on
| p  pull-off
| ~  vibrato
| +  harmonic
| x  Mute note
===============================================================================
            
Submit corrections

↑ Back to top | Tablatures and chords for acoustic guitar and electric guitar, ukulele, drums are parodies/interpretations of the original songs. You may use it for private study, scholarship, research or language learning purposes only