Home » P » Portal »

Portal - Still Alive Bass

Artists:  A B C D E F G H I J K L M N O P Q R S T U V W X Y Z # 

Still Alive Bass

(ver. 1) Click to play this song!
Portal
Piano or guitar intro

(0:44) "still alive..."
G---------------------------------------|
D---------------------------------------|
A--17\\\\\5--5----5--5----5--5----5--5--|
E-------------7--7----7--7----7--7------|

(0:53) "angry..."
|--------------------------------|
|--------------------------------|
|-5--5----5--5----5--5----5--5---|
|-----7--7----7--7----7--7----7--|

(1:01) "Even though you broke my heart...
|--------------------|---------------|
|-------45-----------|---------------|
|--7--77-----------4-|-5--5----5--5--|
|-7---------5-55-7---|-----7--7------|

(1:09) "pieces...
|--------------------------------|
|--------------------------------|
|-5--5----5--5----5--5----5--5---|
|-----7--7----7--7----7--7----7--|

(1:17) "As they burned, it hurt because...
|-------------------------------|
|-------45----------------------|
|--7--77------------4-----------|
|-7---------5--55-7--5-66666666-|

(1:23) "points of data
|--------------------------------------------------------------------------|
|--------------------------------------------------------------------------|
|-88-8-----------88-8-88-8-----------8875-----------88-77-55------8-----7--|
|------88-8-66-6-----------88-8-66-6------666---888----------88-66-6--55-5-|

(1:37) "still alive..."
|--------------------------------|
|--------------------------------|
|-5--5----5--5----5--5----5--5---|
|-----7--7----7--7----7--7----7--|

Interlude (1:44)

(2:01) "Mesa..."
|--------------------------------|
|--------------------------------|
|-5--5----5--5----5--5----5--5---|
|-----7--7----7--7----7--7----7--|

(2:09) "Anyway this cake is great..."
|-------------------------------|
|-------45----------------------|
|--7--77------------4-----------|
|-7---------5--55-7--5-66666666-|

(2:15) "me still talking..."
|--------------------------------------------------------------------------|
|--------------------------------------------------------------------------|
|-88-8-----------88-8-88-8-----------8875-----------88-77-55------8-----7--|
|------88-8-66-6-----------88-8-66-6------666---888----------88-66-6--55-5-|

(2:30) "still alive..."
|--------------------------------|
|--------------------------------| (x3) ...End
|-5--5----5--5----5--5----5--5---|
|-----7--7----7--7----7--7----7--|

This game is a TRIP if you ever get a chance to play it play it, and to top it off the 
ends with this catchy, albeit a little creepy, song.  It's a great game and it ties into 
Life 2.
            
Submit corrections

↑ Back to top | Tablatures and chords for acoustic guitar and electric guitar, ukulele, drums are parodies/interpretations of the original songs. You may use it for private study, scholarship, research or language learning purposes only