Home » P » Peter And The Wolf »

Peter And The Wolf - Safe Travels Tabs

Artists:  A B C D E F G H I J K L M N O P Q R S T U V W X Y Z # 

Safe Travels Tabs

(ver. 3) Click to play this song!
Peter And The Wolf
ok so i was looking at most of the other ones posted and they are wrong.

Capo on the 5th fret to make it easy but you can play the song without it.

Introduction
e-----0-------0-----------------------------------------|
b-------2-------2---------------------------------------|
g-1/2-------1-------------------------------------------|
d-------------------------------------------------------|
a-------------------------------------------------------|
E-------------------------------------------------------|
my brother dreaming of a new land, where the rivers wind through the villages,

e-5-5-5-5--4-4-4-4--2-2-2-2--0-0--0-0--|
b-5-5-5-5--5-5-5-5--3-3-3-3--2-2--0-0--|
g-6-6-6-6--4-4-4-4--2-2-2-2--2-2--1-1--|
d--------------------------------------|
a--------------------------------------|
E--------------------------------------|
and the people breathe so easily all the reachin' trees go the same way,

e--2-2-2-2--0-0--0-0--------2-2-2-2--0-0--0-0-|
b--3-3-3-3--2-2--0-0--------3-3-3-3--2-2--0-0-|
g--2-2-2-2--2-2--1-1--------2-2-2-2--2-2--1-1-|
d---------------------------------------------|
a---------------------------------------------|
E---------------------------------------------|
don't have to go, i know you know you know but if you have to go whoa safe travels.

e-5-5-5-5--4-4-4-4--2-2-2-2--0-0--0-0--|
b-5-5-5-5--5-5-5-5--3-3-3-3--2-2--0-0--|
g-6-6-6-6--4-4-4-4--2-2-2-2--2-2--1-1--|
d--------------------------------------|
a--------------------------------------|
E--------------------------------------|
(peoples voices)

e--2-2-2-2--0-0--0-0--------2-2-2-2--0-0--0-0-|
b--3-3-3-3--2-2--0-0--------3-3-3-3--2-2--0-0-|
g--2-2-2-2--2-2--1-1--------2-2-2-2--2-2--1-1-|
d---------------------------------------------|
a---------------------------------------------|
E---------------------------------------------|
(peoples voices)
            
Submit corrections

↑ Back to top | Tablatures and chords for acoustic guitar and electric guitar, ukulele, drums are parodies/interpretations of the original songs. You may use it for private study, scholarship, research or language learning purposes only