Home » P » Peter And The Wolf »

Peter And The Wolf - Safe Travels Tabs

Artists:  A B C D E F G H I J K L M N O P Q R S T U V W X Y Z # 

Safe Travels Tabs

(ver. 1) Click to play this song!
Peter And The Wolf
Peter And The Wolf - Safe Travels


Chords:
         D             F#m           G            A
E|-------2--------------2------------3------------4------|
A|-------3--------------2------------3------------4------|
D|-------2--------------2------------4------------5------|
G|-------x--------------x------------x------------x------|
H|-------x--------------x------------x------------x------|
e|-------x--------------x------------x------------x------|

Alternative Strumming pattern:
        D             F#m           D            F#m
E|-------2--2--2--2----2--2--2--2----2--2--2--2----2--2--2--2-|
A|-------3--3--3--3----2--2--2--2----3--3--3--3----2--2--2--2-|
D|------2-------------2-------------2------------2------------|
G|------------------------------------------------------------|
H|------------------------------------------------------------|
e|------------------------------------------------------------|

     G            D      A       G            D      A
E|----3--3--3--3---2--2---4--4----3--3--3--3---2--2---4--4--|
A|----3--3--3--3---3--3---4--4----3--3--3--3---3--3---4--4--|
D|---4------------2------5-------4------------2------5------|
G|----------------------------------------------------------|
H|----------------------------------------------------------|
e|----------------------------------------------------------|

Intro:
E|--------5-----------5--------------5----------5----------|
A|----------7-----------7--------------7----------7--------|
D|----6s7-----------6------------6s7----------6------------|   x2
G|---------------------------------------------------------|
B|---------------------------------------------------------|
e|---------------------------------------------------------|

ahhh
[D]my brother [F#m]dreaming of a new land
[D]where the rivers [F#m]wind through the villages
[G]and the people [D]breathe so [A]easily
[G]all the region [D]trees go the [A]same way
[G]don't have to go
i [D]know you know [A]you know
but [G]if you gotta go
[D]whoa-oh
safe[A] travels[G]

[D]my brother [F#m]wander in the tall grass
[D]it's ok to run [F#m]we expect you back
[G]know how to climb a [D]tree i [A]assume you do
[G]i admit it [D]man i'm not as [A]sharp as you
[G]oh but i know
it's [D]still a war [A]down there
and [G]if ya gotta go
[D]whoa-oh
safe[A] travels[G]

oh [D]oh safe[A] travels[G]
oh [D]oh safe[A] travels[G]
oh [D]oh safe[A] travels[G]
oh [D]oh safe[A] travels[G]
            
Submit corrections

↑ Back to top | Tablatures and chords for acoustic guitar and electric guitar, ukulele, drums are parodies/interpretations of the original songs. You may use it for private study, scholarship, research or language learning purposes only