Home » P » Pepper »

Pepper - Rent Tabs

Artists:  A B C D E F G H I J K L M N O P Q R S T U V W X Y Z # 

Rent Tabs

(ver. 3) Click to play this song!
Pepper
 Rating:
4/5 (4 votes)
                Ok there was no tab for this song and it is a great song so I figured I'd put one up. 
to the song for strumming I'm too lazy for that.

Intro & Verse Chords
B minor   G Major
e-7---------3------|
B-7---------3------|
G-7---------4------|
D-9---------5------|
A------------------|
E------------------|

The Verse Ends on A Major
e-5-
B-5-
D-6-
G-7-
A---
E---

Pre-Chorus
E Minor   D Major   B Minor    A Major
e-12-------10--------7----------5------|
B-12-------10--------7----------5------|
D-12-------11--------7----------6------|
G-14-------12--------9----------7------|
A--------------------------------------|
E--------------------------------------|

Chorus
e-10--10--12--10--| Then back to the G Major
A-10--10--10--10--|
D-----------------|
G-----------------|
B-----------------|
E-----------------|

e-10--10--12--14--| And back to G Major again
A-10--10--10--10--|
D-----------------|
G-----------------|
B-----------------|
E-----------------|

Thats the basis of the song right there listen to it and play it and figure it out it's 
            
Submit corrections

↑ Back to top | Tablatures and chords for acoustic guitar and electric guitar, ukulele, drums are parodies/interpretations of the original songs. You may use it for private study, scholarship, research or language learning purposes only