» » »

Pepper - Point And Shoot Tabs

Artists:  A B C D E F G H I J K L M N O P Q R S T U V W X Y Z # 

Point And Shoot Tabs

(ver. 2) Click to play this song!
Pepper
 Rating:
4.4/5 (7 votes)

 Point And Shoot lessons Tabs too difficult? Try these video lessons and learn fast
 
                all the other tabs weren't the whole song so here it is.


Intro
*Guitar one
  C#m  Bm  C#m  Bm-I'm not sure about this last C#m
|-4~---2~---4--(2)-|
|-5~---3~---5--(3)-|
|-6~---4~---6--(4)-|
|-6~---4~---6--(4)-|
|-4~---2~---4--(2)-|
|-x----x----x--(x)-|
*Guitar two
|------------------------------------|
|------------------12h14-14-12-------|
|--11b~-9-9b~\6~---------------14-11-|
|------------------------------------|
|------------------------------------|
|------------------------------------|
*Guitar one - (A) (Bm) played in a choppy raggae rhythym
*Guitar two 
|--14-12-----------------------14-12------------------------|
|-------14-12------------------------14-12~-14-12-14-12-----|
|-------------14-11-------11\---------------------------14~-|
|-------------------11h14-----------------------------------|
|-----------------------------------------------------------|
|-----------------------------------------------------------|

Verse
(A) I'm exactly where I want to be
(Bm)Like a thief inside a robbery
(A) Listening to pirate radio
(Bm)Imagine that I'm in the show

Pre-Chorus
(C#m)Empty sky but I'm still composed
(Fm)Take some time for these
(E)  sexy episodes where

Chorus
(A) Pussy licking, Pussy licking me oh I 
(Bm)I see A photo opportunity
(A) Now lick your lips shake your hips cause that's the sh*t now lover
(Bm)Let the licker help you get on it

Pre-Chorus
(C#m)Now this room is getting loud
(Fm) Must keep an eye now,
(E)  three is a crowd so

Chorus
(A)  Pussy licking, (Bm)Pussy licking (C#m)me oh I (Bm) (C#m)
(A)  I see A (Bm)photo oppor(C#m)tunity (Bm) (C#m)
(A)  Now lick your (Bm)lips shake your (C#m)hips cause that's the
sh*t (Bm)now (C#m)lover
(A)  Let the (Bm)licker help you (C#m)get on it (Bm) (C#m)
(C#m)Let the lickerr help you (E)get on it

*Guitar two - (A) (Bm)
*Guitar one
|-14-12------------------------14-12--------14-12-----------------|
|-------14-12------------------------14-12~-------14-12-----------|
|-------------14-11~-------11\--------------------------14-11h14~-|
|--------------------11h14----------------------------------------|
|-----------------------------------------------------------------|
|-----------------------------------------------------------------|

Verse
(A)If you wanted to, (Bm)you could do like me
(A)Several times, I know, (Bm)I'm lucky to be

Pre-Chorus
(C#m)In the mix but still composed,
(Fm) lost inside these
(E)  Kinky episodes

Chorus
(A)  Pussy licking, (Bm)Pussy licking (C#m)me oh I (Bm) (C#m)
(A)  I see A (Bm)photo oppor(C#m)tunity (Bm) (C#m)
(A)  Now lick your (Bm)lips shake your (C#m)hips cause that's the
sh*t (Bm)now (C#m)lover
(A)  Let the (Bm)licker help you (C#m)get on it (Bm) (C#m)
(C#m)Let the licker help you (E)get on it oh

Outtro
(Fm) (E) (E) (A)
Whoa you, you should imagine, all that these eyes yah, all these eyes have ever seen 
hope you, you got something that
(E)I could use, oh (E)I could use, oh (E)I could use you baby one more time

Outtro Solo

*Guitar one - Follow chorus chord progression
*Guitar two
|----------------------------------------------------------------12-14-12---|
|------------------------------------------------12-12-14~-12-14----------14|
|-13h14-14-13-9-9h11-9-11-6-9~-9h11-9------13h14----------------------------|
|-------------------------------------11~-----------------------------------|
|---------------------------------------------------------------------------|
|---------------------------------------------------------------------------|

|-------12-14-14-14-12----12-14-14-14-12----12------------------------------|
|-12h14----------------14----------------14----14-12------------------------|
|----------------------------------------------------14-11-14-11-9-9h11p9---|
|-------------------------------------------------------------------------11|
|---------------------------------------------------------------------------|
|---------------------------------------------------------------------------|

|-----------------------------|
|-----------------------------|
|------9-11-9-----------------|
|-9h11--------11h14p11--------|
|----------------------14-12~-|
|-----------------------------|

Well there it is.. Im pretty proud of that solo becuase it sounds good to me.
            
Submit corrections


        Point And Shoot lessons Hard to play? Try these video lessons and learn fast Point And Shoot lessons
        
↑ Back to top | Tablatures and chords for acoustic guitar and electric guitar, ukulele, drums are parodies/interpretations of the original songs. You may use it for private study, scholarship, research or language learning purposes only