» » »

Pepper - Look What I Found Tabs

Artists:  A B C D E F G H I J K L M N O P Q R S T U V W X Y Z # 

Look What I Found Tabs

(ver. 3) Click to play this song!
Pepper
 Rating:
4.3/5 (26 votes)

 Look What I Found lessons Tabs too difficult? Try these video lessons and learn fast
 
                [Intro]

e|--------------------------------------------------------------------------|
B|--------------------------------------------------------------------------|
G|-----------------------9----------------------------9---------------------|
D|-----7/9-----7-9--9/11---11-9-----7/9-----7-9--9/11---11-9----------------|
A|--7-9----7h9-------------------7-9----7h9---------------------------------|
E|--------------------------------------------------------------------------|

e|-------------------------------X-5-X-5-5-X-5------------------------------|
B|-------------------------------X-5-X-5-5-X-5--X-9-X-9-9-X-9---------------|
G|-----------------------9-------X-6-X-6-6-X-6--X-9-X-9-9-X-9---------------|
D|-----7/9-----7-9--9/11---11-9--X-7-X-7-7-X-7--X-9-X-9-9-X-9---------------|
A|--7-9----7h9----------------------------------X-7-X-7-7-X-7---------------|
E|--------------------------------------------------------------------------|


[Verse] 

e|-------------------------------X-5-X-5-5-X-5------------------------------|
B|-------------------------------X-5-X-5-5-X-5--X-9-X-9-9-X-9---------------|
G|-----------------------9-------X-6-X-6-6-X-6--X-9-X-9-9-X-9---------------|
D|-----7/9-----7-9--9/11---11-9--X-7-X-7-7-X-7--X-9-X-9-9-X-9---------------| x4
A|--7-9----7h9----------------------------------X-7-X-7-7-X-7---------------|
E|--------------------------------------------------------------------------|


[Chorus]

e|--9-------9-----------7----7-------5----5-------5----5---------------------|
B|--10-10-----10----10--9-9----9--9--7-7----7--7--5-5----6h7p6---6-----------|
G|--11----11-----11-----9---9---9----7---7---7----6---6--------7-------------|
D|--11------------------9------------7------------7--------------------------|
A|--9-------------------7------------5------------7--------------------------|
E|------------------------------------------------5--------------------------|

e|--9-------9-----------7----7-------5----5-------7----7---------------------|
B|--10-10-----10----10--9-9----9--9--7-7----7--7--9-9----9--9----------------|
G|--11----11-----11-----9---9---9----7---7---7----9---9---9------------------|
D|--11------------------9------------7------------9--------------------------|
A|--9-------------------7------------5------------7--------------------------|
E|---------------------------------------------------------------------------|


[Verse] 

e|-------------------------------X-5-X-5-5-X-5------------------------------|
B|-------------------------------X-5-X-5-5-X-5--X-9-X-9-9-X-9---------------|
G|-----------------------9-------X-6-X-6-6-X-6--X-9-X-9-9-X-9---------------|
D|-----7/9-----7-9--9/11---11-9--X-7-X-7-7-X-7--X-9-X-9-9-X-9---------------| x4
A|--7-9----7h9----------------------------------X-7-X-7-7-X-7---------------|
E|--------------------------------------------------------------------------|


[Chorus/Outro]

e|--9-------9-----------7----7-------5----5-------5----5---------------------|
B|--10-10-----10----10--9-9----9--9--7-7----7--7--5-5----6h7p6---6-----------|
G|--11----11-----11-----9---9---9----7---7---7----6---6--------7-------------|
D|--11------------------9------------7------------7--------------------------|
A|--9-------------------7------------5------------7--------------------------|
E|------------------------------------------------5--------------------------|
                                                                               x2
e|--9-------9-----------7----7-------5----5-------7----7---------------------|
B|--10-10-----10----10--9-9----9--9--7-7----7--7--9-9----9--9----------------|
G|--11----11-----11-----9---9---9----7---7---7----9---9---9------------------|
D|--11------------------9------------7------------9--------------------------|
A|--9-------------------7------------5------------7--------------------------|
E|---------------------------------------------------------------------------|            
Submit corrections


        Look What I Found lessons Hard to play? Try these video lessons and learn fast Look What I Found lessons
        
↑ Back to top | Tablatures and chords for acoustic guitar and electric guitar, ukulele, drums are parodies/interpretations of the original songs. You may use it for private study, scholarship, research or language learning purposes only