Home » P » Pepper »

Pepper - Back Home Tabs

Artists:  A B C D E F G H I J K L M N O P Q R S T U V W X Y Z # 

Back Home Tabs

(ver. 3) Click to play this song!
Pepper
 Rating:
3.8/5 (5 votes)
                Intro/Verse

     Em     D       B      A
x8
e|-------------|---7-7----5-5-|
B|-7h8--x--7-7-|-x-7-7--x-5-5-|
G|-7h9--x--7-7-|-x-7-7--x-6-6-|
D|-7h9--x--7-7-|-x------x-7-7-|
A|-7----x--5-5-|-x------x-----|
E|-------------|--------------|

Bridge

e|-------------|-------------|-------------|-------------|
B|-------------|-------------|-------------|-------------|
G|-------------|-------------|-------------|-------------|
D|-------------|-------------|-------------|-------------|
A|-4-4-4-4-4-4-|-5-5-5-5-5-5-|-7-7-7-7-7-7-|-9-9-9-9-9-9-|
E|-2-2-2-2-2-2-|-3-3-3-3-3-3-|-5-5-5-5-5-5-|-7-7-7-7-7-7-|

e|-------------|-------------|-------------|-------------|
B|-------------|-------------|-------------|-------------|
G|-------------|-------------|-------------|-x-x-x-x-x-x-|
D|-------------|-------------|-------------|-x-x-x-x-x-x-|
A|-4-4-4-4-4-4-|-5-5-5-5-5-5-|-7-7-7-7-7-7-|-x-x-x-x-x-x-|
E|-2-2-2-2-2-2-|-3-3-3-3-3-3-|-5-5-5-5-5-5-|-x-x-x-x-x-x-|

The Em chord and the D chord get used during the slow down back and forth, just one 
and then as power chords as it speeds up again.
That's definately the right tab too
            
Submit corrections

↑ Back to top | Tablatures and chords for acoustic guitar and electric guitar, ukulele, drums are parodies/interpretations of the original songs. You may use it for private study, scholarship, research or language learning purposes only