» » »

Passenger - Travelling Alone Tabs

Artists:  A B C D E F G H I J K L M N O P Q R S T U V W X Y Z # 

Travelling Alone Tabs

(ver. 3) Click to play this song!
Passenger
 Rating:
2.1/5 (27 votes)

 Travelling Alone lessons Tabs too difficult? Try these video lessons and learn fast
 
                Capo 4.



** INTRODUCTION **

    ....... 1 & 2 & 3 & 1 & 2 & 3 & 1 & 2 & 3 & 1 & 2 & 3 & 
e|----------0-----------3p0----------------------------------|
B|--1---3---1-----1-----------3p1-1-------------------1------|
G|----------0--------0--------------0h2---0h2-0-----------0--|
D|--2---3---2---2---2-------0---0-------3---3-------2----2---|
A|----------3-----------------------------------3------------|
E|----------x-----------0-----------1------------------------|

    1 & 2 & 3 & 1 & 2 & 3 & 1 & 2 & 3 & 1 & 2 & 3 & 
e|--0-----------5-----0---------------1-----------0--|
B|--1-----1-----------1-----1h3----------------1h3---|
G|------------0-----------0-------0------------------|
D|------2---2-------2---2-------0---0-------0--------|
A|--3-----------3------------------------------------|
E|--------------------------3-----------3------------|

    1 & 2 & 3 & 1 & 2 & 3 & 1 & 2 & 3 & 1 & 2 & 3 & 
e|--------------------------------------1------------|
B|--------1-----------1-----------1-----1------------|
G|------------0-3---------0-0h2---------1-----1---0--|
D|------2---2-------2---2-------3---3---3---3---3----|
A|--3-----------3-----------------------3------------|
E|--------------------------1-----------1------------|

    1 & 2 & 3 & 1 & 2 & 3 & 1 & 2 & 3 & 1 & 2 & 3 & 
e|---------------------------------------------------|
B|--------1-----1h3---1p0-1-------1-----------1------|
G|------------0-----------------------0-----------0--|
D|------2---2-------0---0-------2---2-------2---2----|
A|--3-----------------------3------------------------|
E|--------------3-----------------------3------------|



** VERSE 1 **

Australian man, Scandinavian tan,
    1 & 2 & 3 & 1 & 2 & 3 & 1 & 2 & 3 & 1 & 2 & 3 & 
e|---------------------------------------------------|
B|--------1-----------1-----------1-----------1------|
G|------------0-----------0-----------2-----------0--|
D|------2---2-------2---2-------3---3-------2---2----|
A|--3-----------------------------------3------------|
E|--------------3-----------1------------------------|

Kicking stones round a square.
    1 & 2 & 3 & 1 & 2 & 3 & 1 & 2 & 3 & 1 & 2 & 3 & 
e|---------------------------------------------------|
B|--------1-----------1-----------0h1-1p0------0-----|
G|------------0-----------0-----------------------0--|
D|------2---2-------2---2-------0---0-------0---0----|
A|--3-----------3------------------------------------|
E|--------------------------3-----------3------------|

Sat for a while and carved out a smile,
    1 & 2 & 3 & 1 & 2 & 3 & 1 & 2 & 3 & 1 & 2 & 3 & 
e|---------------------------------------------------|
B|--------1-----------1-----------1-----------1------|
G|------------0-3---------0-2---------2-1---------1--|
D|------2---2-------2---2-------3---3-------3---3----|
A|--3-----------3------------------------------------|
E|--------------------------1-----------1------------|

As if someone would care.
    1 & 2 & 3 & 1 & 2 & 3 & 1 & 2 & 3 & 1 & 2 & 3 & 
e|---------------------------------------------------|
B|--------1-----------0-----------1-----------0------|
G|------------0-----------0-----------0-----------0--|
D|------2---2-------0---0-------2---2-------0---0----|
A|--3-----------------------3------------------------|
E|--------------3-----------------------3------------|



** VERSE 2 **

Said I'm a long way from the Gold Coast. Furthest I've ever known,
    1 & 2 & 3 & 1 & 2 & 3 & 1 & 2 & 3 & 1 & 2 & 3 & 
e|---------------------------------------------------|
B|--------1-----------1-----------1-----------1------|
G|------------0-----------0-----------2-----------0--|
D|------2---2-------2---2-------3---3-------2---2----|
A|--3-----------------------------------3------------|
E|--------------3-----------1------------------------|

Oh and this just ain't my home.
    1 & 2 & 3 & 1 & 2 & 3 & 1 & 2 & 3 & 1 & 2 & 3 & 
e|---------------------------------------------------|
B|--------1-----------1-----------0h1-1p0------0-----|
G|------------0-----------0-----------------------0--|
D|------2---2-------2---2-------0---0-------0---0----|
A|--3-----------3------------------------------------|
E|--------------------------3-----------3------------|

It was my wife's idea, but she's no longer here.
    1 & 2 & 3 & 1 & 2 & 3 & 1 & 2 & 3 & 1 & 2 & 3 & 
e|---------------------------------------------------|
B|--------1-----------1-----------1-----------1------|
G|------------0-3---------0-2---------2-1---------1--|
D|------2---2-------2---2-------3---3-------3---3----|
A|--3-----------3------------------------------------|
E|--------------------------1-----------1------------|

She left me travelling alone.
    1 & 2 & 3 & 1 & 2 & 3 & 1 & 2 & 3 & 1 & 2 & 3 & 
e|---------------------------------------------------|
B|--------1-----------0-----------1-----------0------|
G|------------0-----------0-----------0---------0----|
D|------2---2-------0---0-------2---2---0h2-2--------|
A|--3-----------------------3-----------3------------|
E|--------------3-------------------------------0----|



** BRIDGE **

I never heard silence,
    1 & 2 & 3 & 1 & 2 & 3 & 1 & 2 & 3 & 1 & 2 & 3 & 
e|---------------------------------------------------|
B|--------1-----------1-----------1-----------0------|
G|--0h2-------2-----------2-----------0---------0----|
D|------3---3-------3---3-------2---2---0h2-2--------|
A|--------------------------3-----------3------------|
E|--1-----------1-------------------------------0----|

ring out like a bell.
    1 & 2 & 3 & 1 & 2 & 3 & 1 & 2 & 3 & 1 & 2 & 3 & 
e|---------------------------------------------------|
B|--------1-----------1-----------1-----------0------|
G|--0h2-------2-----------2-----------0---------0----|
D|------3---3-------3---3-------2---2---0h2-2--------|
A|--------------------------3-----------3------------|
E|--1-----------1-------------------------------0----|

I never heard silence,
    1 & 2 & 3 & 1 & 2 & 3 & 1 & 2 & 3 & 1 & 2 & 3 & 
e|---------------------------------------------------|
B|--------1-----------1-----------1-----------1------|
G|--0h2-------2-----------2-----------0-----------0--|
D|------3---3-------3---3-------2---2-------2---2----|
A|--------------------------0-----------0------------|
E|--1-----------1------------------------------------|

like last night in my expensive hotel.
    1 & 2 & 3 & 1 & 2 & 3 & 1 & 2 & 3 & 1 & 2 & 3 & 
e|--------2-----------2------------------------------|
B|------------1-----------1-------0-----0h1-0--------|
G|------2---2-------2---2-------------0-------0------|
D|--0-----------0---------------0---0-------0--------|
A|---------------------------------------------------|
E|--------------------------3-----------3-------3----|

Well, I'm loving a shadow,
    1 & 2 & 3 & 1 & 2 & 3 & 1 & 2 & 3 & 1 & 2 & 3 & 
e|---------------------------------------------------|
B|--------1-----------1-----------1-----0h1-0--------|
G|--0h2-------2-----------2-----------0-------0------|
D|------3---3-------3---3-------2---2-------2--------|
A|--------------------------0-----------0------------|
E|--1-----------1------------------------------0-----|

I'm trying to catch the rain.
    1 & 2 & 3 & 1 & 2 & 3 & 1 & 2 & 3 & 1 & 2 & 3 & 
e|---------------------------------------------------|
B|--------1-----------1-----------1-----0h1-0--------|
G|--0h2-------2-----------2-----------0-------0------|
D|------3---3-------3---3-------2---2-------2--------|
A|--------------------------0-----------0------------|
E|--1-----------1------------------------------0-----|

But I never heard silence
    1 & 2 & 3 & 1 & 2 & 3 & 1 & 2 & 3 & 1 & 2 & 3 & 
e|---------------------------------------------------|
B|--------1-----------1-----------1------------------|
G|--0h2-------2-----------2-----------0-------0------|
D|------3---3-------3---3-------2---2---0h2-2---0----|
A|--------------------------3-----------3------------|
E|--1-----------1------------------------------------|

'til I heard it today.
    1 & 2 & 3 & 1 & 2 & 3 & 1 & 2 & 3 & 1 ... 
e|----------------------------------------...--|
B|--------1-----------1-----------1-------...--|
G|------------0-----------2-----------0---...--|
D|------2---2-------3---3-------2---2-----...--|
A|--------------------------3-------------...--|
E|--3-----------1-----------------------3-...--|



** INTRODUCTION AGAIN **

    ....... 1 & 2 & 3 & 1 & 2 & 3 & 1 & 2 & 3 & 1 & 2 & 3 & 
e|----------0-----------3p0----------------------------------|
B|--1---3---1-----1-----------3p1-1-------------------1------|
G|----------0--------0--------------0h2---0h2-0-----------0--|
D|--2---3---2---2---2-------0---0-------3---3-------2----2---|
A|----------3-----------------------------------3------------|
E|----------x-----------0-----------1------------------------|

    1 & 2 & 3 & 1 & 2 & 3 & 1 & 2 & 3 & 1 & 2 & 3 & 
e|--0-----------5-----0---------------1-----------0--|
B|--1-----1-----------1-----1h3----------------1h3---|
G|------------0-----------0-------0------------------|
D|------2---2-------2---2-------0---0-------0--------|
A|--3-----------3------------------------------------|
E|--------------------------3-----------3------------|

    1 & 2 & 3 & 1 & 2 & 3 & 1 & 2 & 3 & 1 & 2 & 3 & 
e|--------------------------------------1------------|
B|--------1-----------1-----------1-----1------------|
G|------------0-3---------0-0h2---------1-----1---0--|
D|------2---2-------2---2-------3---3---3---3---3----|
A|--3-----------3-----------------------3------------|
E|--------------------------1-----------1------------|

    1 & 2 & 3 & 1 & 2 & 3 & 1 & 2 & 3 & 1 & 2 & 3 & 
e|---------------------------------------------------|
B|--------1-----1h3---1p0-1-------1-----------1------|
G|------------0-----------------------0-----------0--|
D|------2---2-------0---0-------2---2-------2---2----|
A|--3-----------------------3------------------------|
E|--------------3-----------------------3------------|



** VERSE 3 **

She walked out of the hotel, I could still smell the smoke
    1 & 2 & 3 & 1 & 2 & 3 & 1 & 2 & 3 & 1 & 2 & 3 & 
e|---------------------------------------------------|
B|--------1-----------1-----------1-----------1------|
G|------------0-----------0-----------2-----------0--|
D|------2---2-------2---2-------3---3-------2---2----|
A|--3-----------------------------------3------------|
E|--------------3-----------1------------------------|

of the burning heart left inside.
    1 & 2 & 3 & 1 & 2 & 3 & 1 & 2 & 3 & 1 & 2 & 3 & 
e|---------------------------------------------------|
B|--------1-----------1-----------0h1-1p0------0-----|
G|------------0-----------0-----------------------0--|
D|------2---2-------2---2-------0---0-------0---0----|
A|--3-----------3------------------------------------|
E|--------------------------3-----------3------------|

She said men are all a**holes, and life's a bad joke.
    1 & 2 & 3 & 1 & 2 & 3 & 1 & 2 & 3 & 1 & 2 & 3 & 
e|---------------------------------------------------|
B|--------1-----------1-----------1-----------1------|
G|------------0-3---------0-2---------2-1---------1--|
D|------2---2-------2---2-------3---3-------3---3----|
A|--3-----------3------------------------------------|
E|--------------------------1-----------1------------|

She laughed and started to cry.
    1 & 2 & 3 & 1 & 2 & 3 & 1 & 2 & 3 & 1 & 2 & 3 & 
e|---------------------------------------------------|
B|--------1-----------0-----------1-----------0------|
G|------------0-----------0-----------0-----------0--|
D|------2---2-------0---0-------2---2-------0---0----|
A|--3-----------------------3------------------------|
E|--------------3-----------------------3------------|



** VERSE 4 **

See, ten years with this man, and a life time of plans,
    1 & 2 & 3 & 1 & 2 & 3 & 1 & 2 & 3 & 1 & 2 & 3 & 
e|---------------------------------------------------|
B|--------1-----------1-----------1-----------1------|
G|------------0-----------0-----------2-----------0--|
D|------2---2-------2---2-------3---3-------2---2----|
A|--3-----------------------------------3------------|
E|--------------3-----------1------------------------|

Oh, and I loved him to his bones.
    1 & 2 & 3 & 1 & 2 & 3 & 1 & 2 & 3 & 1 & 2 & 3 & 
e|---------------------------------------------------|
B|--------1-----------1-----------0h1-1p0------0-----|
G|------------0-----------0-----------------------0--|
D|------2---2-------2---2-------0---0-------0---0----|
A|--3-----------3------------------------------------|
E|--------------------------3-----------3------------|

Now I've lines on my skin, and he's traded me in.
    1 & 2 & 3 & 1 & 2 & 3 & 1 & 2 & 3 & 1 & 2 & 3 & 
e|---------------------------------------------------|
B|--------1-----------1-----------1-----------1------|
G|------------0-3---------0-2---------2-1---------1--|
D|------2---2-------2---2-------3---3-------3---3----|
A|--3-----------3------------------------------------|
E|--------------------------1-----------1------------|

He left me travelling alone.
    1 & 2 & 3 & 1 & 2 & 3 & 1 & 2 & 3 & 1 & 2 & 3 & 
e|---------------------------------------------------|
B|--------1-----------0-----------1-----------0------|
G|------------0-----------0-----------0---------0----|
D|------2---2-------0---0-------2---2---0h2-2--------|
A|--3-----------------------3-----------3------------|
E|--------------3-------------------------------0----|



** BRIDGE **

Well, I never felt silence,
    1 & 2 & 3 & 1 & 2 & 3 & 1 & 2 & 3 & 1 & 2 & 3 & 
e|---------------------------------------------------|
B|--------1-----------1-----------1-----------0------|
G|--0h2-------2-----------2-----------0---------0----|
D|------3---3-------3---3-------2---2---0h2-2--------|
A|--------------------------3-----------3------------|
E|--1-----------1-------------------------------0----|

hit me like a train.
    1 & 2 & 3 & 1 & 2 & 3 & 1 & 2 & 3 & 1 & 2 & 3 & 
e|---------------------------------------------------|
B|--------1-----------1-----------1-----------0------|
G|--0h2-------2-----------2-----------0---------0----|
D|------3---3-------3---3-------2---2---0h2-2--------|
A|--------------------------3-----------3------------|
E|--1-----------1-------------------------------0----|

I never felt silence,
    1 & 2 & 3 & 1 & 2 & 3 & 1 & 2 & 3 & 1 & 2 & 3 & 
e|---------------------------------------------------|
B|--------1-----------1-----------1-----------1------|
G|--0h2-------2-----------2-----------0-----------0--|
D|------3---3-------3---3-------2---2-------2---2----|
A|--------------------------0-----------0------------|
E|--1-----------1------------------------------------|

like blood coursed through my veins.
    1 & 2 & 3 & 1 & 2 & 3 & 1 & 2 & 3 & 1 & 2 & 3 & 
e|--------2-----------2------------------------------|
B|------------1-----------1-------0-----0h1-0--------|
G|------2---2-------2---2-------------0-------0------|
D|--0-----------0---------------0---0-------0--------|
A|---------------------------------------------------|
E|--------------------------3-----------3-------3----|

Well, I'm loving a shadow,
    1 & 2 & 3 & 1 & 2 & 3 & 1 & 2 & 3 & 1 & 2 & 3 & 
e|---------------------------------------------------|
B|--------1-----------1-----------1-----0h1-0--------|
G|--0h2-------2-----------2-----------0-------0------|
D|------3---3-------3---3-------2---2-------2--------|
A|--------------------------0-----------0------------|
E|--1-----------1------------------------------0-----|

and I'm trying to catch the rain.
    1 & 2 & 3 & 1 & 2 & 3 & 1 & 2 & 3 & 1 & 2 & 3 & 
e|---------------------------------------------------|
B|--------1-----------1-----------1-----0h1-0--------|
G|--0h2-------2-----------2-----------0-------0------|
D|------3---3-------3---3-------2---2-------2--------|
A|--------------------------0-----------0------------|
E|--1-----------1------------------------------0-----|

I never heard silence
    1 & 2 & 3 & 1 & 2 & 3 & 1 & 2 & 3 & 1 & 2 & 3 & 
e|---------------------------------------------------|
B|--------1-----------1-----------1------------------|
G|--0h2-------2-----------2-----------0-------0------|
D|------3---3-------3---3-------2---2---0h2-2---0----|
A|--------------------------3-----------3------------|
E|--1-----------1------------------------------------|

'til I heard it today.
    1 & 2 & 3 & 1 & 2 & 3 & 1 & 2 & 3 &  
e|---------------------------------------|
B|--------1-----------1-----------1------|
G|------------0-----------2-----------0--|
D|------2---2-------3---3-------2---2----|
A|--------------------------0------------|
E|--3-----------1------------------------|



** OUTRO** - Different from the album version, but I kind of like it.

I never felt silence
    1 & 2 & 3 & 1  2 
e|--------------1--|
B|--1---3---5---1--|
G|--------------2--|
D|--2---3---5---3--|
A|--------------3--|
E|--------------1--|

'til I felt it today.
e|--0---0---1---0--|
B|--1---3---1---1--|
G|--0---0---2---0--|
D|--2---0---3---2--|
A|--3---2---3---3--|
E|--x---3---1---x--|            
Submit corrections


        Travelling Alone lessons Hard to play? Try these video lessons and learn fast Travelling Alone lessons
        
↑ Back to top | Tablatures and chords for acoustic guitar and electric guitar, ukulele, drums are parodies/interpretations of the original songs. You may use it for private study, scholarship, research or language learning purposes only