» » »

Passenger - Travelling Alone Tabs

Artists:  A B C D E F G H I J K L M N O P Q R S T U V W X Y Z # 

Travelling Alone Tabs

(ver. 2) Click to play this song!
Passenger
 Rating:
2.7/5 (23 votes)

 Travelling Alone lessons Tabs too difficult? Try these video lessons and learn fast
 
                Tuning: Standard 
CAPO 4

e|------0------3p0-----------------------0------5------3------1--------------|
B|-1-3--1--1-------3p1---------------------1------1------1-------------------|
G|------0---0----------0h2-0h2-0-------------0------0------0-----------------|
D|-2-3--2--------------3----------0h2----------------------------------------|
A|------3------2------------------3------3------3----------------------------|
E|---------------------------------------------------------------------------|

e|----0-------------------1----------------------0---------------------------|
B|-1h3-----1-----1--------1-1----------1h3--1p0--1---------------------------|
G|-----------0-3---3-0h2--1---1------------------0---------------------------|
D|-------------------3----3------0h2-------------2---------------------------|
A|------3-----------------3------3---------------3---------------------------|
E|------------------------1------------3-------------------------------------|
            
Submit corrections


        Travelling Alone lessons Hard to play? Try these video lessons and learn fast Travelling Alone lessons
        
↑ Back to top | Tablatures and chords for acoustic guitar and electric guitar, ukulele, drums are parodies/interpretations of the original songs. You may use it for private study, scholarship, research or language learning purposes only