» » »

Passenger - Travelling Alone Tabs

Artists:  A B C D E F G H I J K L M N O P Q R S T U V W X Y Z # 

Travelling Alone Tabs

(ver. 1) Click to play this song!
Passenger
 Rating:
2.7/5 (25 votes)

 Travelling Alone lessons Tabs too difficult? Try these video lessons and learn fast
 
                Capo:I

e|-----3-----------------------3---0-----------------------------------------|
B|-----0---3p0-----------------0-----3-0-------------0-----------------------|
G|-0-2-0-0-----2p0-2p0-----0-2-0-0-------0h2-----0-2---2p0-----0-----0-------|
D|-----0-----------------------0---------------------------0h1---1p0---0---0-|
A|-----2-----------------------2-----------------------------------------3---|
E|-----3-----------------------3---------------------------------------------|

e|---------------------------------------------------------------------------|
B|---------0-----------------------------------------------------------------|
G|-0-0h2p0---2p0-2~-0--------------------------------------------------------|
D|---------------------------------------------------------------------------|
A|---------------------------------------------------------------------------|
E|---------------------------------------------------------------------------|            
Submit corrections


        Travelling Alone lessons Hard to play? Try these video lessons and learn fast Travelling Alone lessons
        
↑ Back to top | Tablatures and chords for acoustic guitar and electric guitar, ukulele, drums are parodies/interpretations of the original songs. You may use it for private study, scholarship, research or language learning purposes only