» » »

Paramore - When It Rains Tabs

Artists:  A B C D E F G H I J K L M N O P Q R S T U V W X Y Z # 

When It Rains Tabs

(ver. 1) Click to play this song!
Paramore
 Rating:
4/5 (4 votes)


 When It Rains lessons Tabs too difficult? Try these video lessons and learn fast
 
                Paramore

Hi! Im eyfreel, from philippines. This is my first tab, YEHEY!
This is NOT 100% accurate but somehow it sounds good (to me)...
I used power chords and simple plucks. Just copy the strum exactly
how you heard it from the cd. I hope you'll like it.
This tab is for all the PARAMORE fans!!!

Tuning: Standard EADGBe


INTRO:

e|--------------------------------------------|
B|--------------------------------------------|
G|--------------------------------------------|
D|-------10-------------10--------------------|
A|-------10-(ring)------10-(ring)-------------|
E|-------8--------------8---------------------|


e|--------11-------11-------13-------15-------|
B|-----11----11-11----11-11----11-11----------|
G|--------------------------------------------|
D|--------------------------------------------|
A|--------------------------------------------|
E|--------------------------------------------|


e|--------11-------11-------------------------|
B|-----11----11-11----11-11-9-11-9-8--(8)-(8)-|
G|--------------------------------------------|
D|--------------------------------------------|
A|--------------------------------------------|
E|--------------------------------------------|


e|--------11-------11-------13-------15-------|
B|-----11----11-11----11-11----11-11----------|
G|--------------------------------------------|
D|--------------------------------------------|
A|--------------------------------------------|
E|--------------------------------------------|


e|--------11-------11-------------------------|
B|-----11----11-11----11-11-9-11-9-8--(8)-(8)-|
G|--------------------------------------------|
D|--------------------------------------------|
A|--------------------------------------------|
E|--------------------------------------------|


e|-------------|
B|-------------|
G|---8---------|
D|---8---------|
A|---6---------|
E|-------------|

VERSE 1:

e|----------------------------------------------------------|
B|----------------------------------------------------------|
G|--------------------------------------8------------8------|
D|--10----------------------------------8------------8------|
A|--10----------------------------------6------------6------|
E|--8------------------------------------------------6------|
 "And when it rains   On this side of town it touches


e|----------------------------------------------------------|
B|----------------------------------------------------------|
G|--------------------------------------8------------8------|
D|--10----------------------------------8------------8------|
A|--10----------------------------------6------------6------|
E|--8------------------------------------------------6------|
 "everything            Just say it again and mean it

PRE-CHORUS 1:

e|----------------------------------------------------------|
B|----------------------------------------------------------|
G|-----------10---------------------------------------------|
D|-----------10---------------------------------------------|
A|-----------8----------------------------------------------|
E|----------------------------------------------------------|
    "We don't miss a thing You made yourself a bed at

e|----------------------------------------------------------|
B|----------------------------------------------------------|
G|------------------------8---------------------------------|
D|------------------------8---------------------------------|
A|------------------------6---------------------------------|
E|----------------------------------------------------------|
    "The bottom of the blackest hole (blackest hole)

e|----------------------------------------------------------|
B|----------------------------------------------------------|
G|----------------------------------------------------------|
D|--------6-------------------------------------------------|
A|--------6-------------------------------------------------|
E|--------4-------------------------------------------------|
    "And convinced yourself that   It's not the reason

e|----------------------------------------------------------|
B|----------------------------------------------------------|
G|----------------------------------------------------------|
D|--------10-------------------8----------------------------|
A|--------10-------------------8----------------------------|
E|--------8--------------------6----------------------------|
    "you don't see the sun anymore


CHORUS:

e|----------------------------------------------------------|
B|----------------------------------------------------------|
G|-----------------------------8----------------------------|
D|----6------------/--10-------8----------------------------|
A|----6------------/--10-------6----------------------------|
E|----4------------/--8-------------------------------------|
    "And oh,       oh, how could you do it?


 //Lead Guitar//
e|--------11-------11-------13-------15-------|
B|-----11----11-11----11-11----11-11----------|
G|--------------------------------------------|
D|--------------------------------------------|
A|--------------------------------------------|
E|--------------------------------------------|


e|----------------------------------------------------------|
B|----------------------------------------------------------|
G|----------------------------------------------------------|
D|----6------------/--8-----/--10---------------------------|
A|----6------------/--8-----/--10---------------------------|
E|----4------------/--6-----/--8----------------------------|
    "Oh I, 	   I   never saw it coming


e|--------11-------11-------------------------|
B|-----11----11-11----11-11-9-11-9-8--(8)-(8)-|
G|--------------------------------------------|
D|--------------------------------------------|
A|--------------------------------------------|
E|--------------------------------------------|


e|----------------------------------------------------------|
B|----------------------------------------------------------|
G|-----------------------------8----------------------------|
D|----6------------/--10-------8----------------------------|
A|----6------------/--10-------6----------------------------|
E|----4------------/--8-------------------------------------|
    "Oh, oh, 	   I    need the ending


e|--------11-------11-------13-------15-------|
B|-----11----11-11----11-11----11-11----------|
G|--------------------------------------------|
D|--------------------------------------------|
A|--------------------------------------------|
E|--------------------------------------------|


e|----------------------------------------------------------|
B|----------------------------------------------------------|
G|------------------------------------------------8---------|
D|----6------------/--8------/-10-----------------8---------|
A|----6------------/--8------/-10-----------------6---------|
E|----4------------/--6------/-8----------------------------|
    "So why can't you stay  Just long enough to explain?


e|--------11-------11-------------------------|
B|-----11----11-11----11-11-9-11-9-8--(8)-(8)-|
G|--------------------------------------------|
D|--------------------------------------------|
A|--------------------------------------------|
E|--------------------------------------------|

VERSE 2:
(repeat chords)

And when it rains
Will you always find an escape?
Just running away


PRE-CHORUS 2:
(repeat chords)

The bottom of the blackest hole (blackest hole)
And you'll sleep 'til May  And you'll say
that you don't want to see the sun anymore


CHORUS:

e|----------------------------------------------------------|
B|----------------------------------------------------------|
G|-----------------------------8----------------------------|
D|----6------------/--10-------8----------------------------|
A|----6------------/--10-------6----------------------------|
E|----4------------/--8-------------------------------------|
    "And oh,       oh, how could you do it?


e|----------------------------------------------------------|
B|----------------------------------------------------------|
G|----------------------------------------------------------|
D|----6------------/--8-----/--10---------------------------|
A|----6------------/--8-----/--10---------------------------|
E|----4------------/--6-----/--8----------------------------|
    "Oh I, 	   I   never saw it coming


e|----------------------------------------------------------|
B|----------------------------------------------------------|
G|-----------------------------8----------------------------|
D|----6------------/--10-------8----------------------------|
A|----6------------/--10-------6----------------------------|
E|----4------------/--8-------------------------------------|
    "Oh, oh, 	   I    need the ending


e|----------------------------------------------------------|
B|----------------------------------------------------------|
G|----------------------------------------------------------|
D|----6------------/--8------/-10---------------------------|
A|----6------------/--8------/-10---------------------------|
E|----4------------/--6------/-8----------------------------|
    "So why can't you stay  Just long enough to explain?

BRIDGE:

e|----------------------------------------------------------|
B|----------------------------------------------------------|
G|----10---8------------------------------------------------|
D|----10---8----6-------------10----8----6------------------|
A|----8----6----6-------------10----8----6------------------|
E|---------6----4-------------8-----6----4------------------|
   "Take your time 	      Take  my time


e|----------------------------------------------------------|
B|----------------------------------------------------------|
G|----10----------------------------------------------------|
D|----10-------------------6--------------------------------|
A|----8--------------------6--------------------------------|
E|-------------------------4--------------------------------|
   "Take these chances to turn it around. (take your time)

e|----------------------------------------------------------|
B|----------------------------------------------------------|
G|----------------------------------------------------------|
D|----10--------------------8-------------------------------|
A|----10--------------------8-------------------------------|
E|----8---------------------6-------------------------------|
   "Take these chances, we'll make it somehow

e|----------------------------------------------------------|
B|----------------------------------------------------------|
G|----10----------------------------------------------------|
D|----10-------------------6--------------------------------|
A|----8--------------------6--------------------------------|
E|-------------------------4--------------------------------|
   "And take these chances to turn it around. (take your...)

e|----------------------------------------------------------|
B|----------------------------------------------------------|
G|----10--10--10--------------------------------------------|
D|----10--10--10--------------------------------------------|
A|----8---8---8---------------------------------------------|
E|----------------------------------------------------------|
   "Just turn it around


strum..
e|----------------------------------------------------------|
B|----------------------------------------------------------|
G|-----------------------------8----------------------------|
D|----6------------/--10-------8----------------------------|
A|----6------------/--10-------6----------------------------|
E|----4------------/--8-------------------------------------|
    "And oh,       oh, how could you do it?


e|----------------------------------------------------------|
B|----------------------------------------------------------|
G|----------------------------------------------------------|
D|----6------------/--8-----/--10---------------------------|
A|----6------------/--8-----/--10---------------------------|
E|----4------------/--6-----/--8----------------------------|
    "Oh I, 	   I   never saw it coming

CHORUS:

(same lead guitar)
e|----------------------------------------------------------|
B|----------------------------------------------------------|
G|-----------------------------8----------------------------|
D|----6------------/--10-------8----------------------------| _
A|----6------------/--10-------6----------------------------|  \
E|----4------------/--8-------------------------------------|   |
    "And oh,       oh, how could you do it?                    |
							  (2x) |
							       |
e|----------------------------------------------------------|   |
B|----------------------------------------------------------| _/
G|----------------------------------------------------------|
D|----6------------/--8-----/--10---------------------------|
A|----6------------/--8-----/--10---------------------------|
E|----4------------/--6-----/--8----------------------------|
    "Oh I, 	   I   never saw it coming

e|----------------------------------------------------------|
B|----------------------------------------------------------|
G|-----------------------------8----------------------------|
D|----6------------/--10-------8----------------------------|
A|----6------------/--10-------6----------------------------|
E|----4------------/--8-------------------------------------|
    "Oh, oh, 	   I    need the ending


e|----------------------------------------------------------|
B|----------------------------------------------------------|
G|----------------------------------------------------------|
D|----6------------/--8------/-10---------------------------|
A|----6------------/--8------/-10---------------------------|
E|----4------------/--6------/-8----------------------------|
    "So why can't you stay  Just long enough to explain?

e|----------------------------------------------------------|
B|----------------------------------------------------------|
G|----10---------------------8------------------------------|
D|----10---------------------8------------------6-----------|
A|----8----------------------6------------------6-----------|
E|---------------------------6------------------4-----------|
    "You can take your time, 	     take my time


.... end .....

[ LYRICS ]

VERSE 1:
And when it rains
On this side of town it touches
everything/ Just say it again and mean it

PRE-CHORUS 1:
We don't miss a thing You made yourself a bed
At the bottom of the blackest hole (blackest hole)
And convinced yourself that It's not the reason
you don't see the sun anymore

CHORUS:
And oh, oh, how could you do it?
Oh I, I never saw it coming
Oh, oh, I need the ending
So why can't you stay
Just long enough to explain?

VERSE 2:
And when it rains
Will you always find an escape?
Just running away

PRE-CHORUS 1:
The bottom of the blackest hole (blackest hole)
And you'll sleep 'til May And you'll say
that you don't want to see the sun anymore

(Repeat CHORUS)

BRIDGE:
Take your time
Take my time
Take these chances to turn it around. (take your time)
Take these chances, we'll make it somehow
And take these chances to turn it around. (take my...)
Just turn it around.

Oh, how could you do it?
Oh I, I never saw it coming

CHORUS 2:
Oh, how could you do it?
Oh I, I never saw it coming
(Repeat 2x)
Oh, oh, I need the ending
So why can't you stay
Just long enough to explain?

You can take your time, take my time
            
Submit corrections



        When It Rains lessons Hard to play? Try these video lessons and learn fast When It Rains lessons
        
↑ Back to top | Tablatures and chords for acoustic guitar and electric guitar, ukulele, drums are parodies/interpretations of the original songs. You may use it for private study, scholarship, research or language learning purposes only