» » »

Paramore - Chords

Artists:  A B C D E F G H I J K L M N O P Q R S T U V W X Y Z # 

Chords

(ver. 4) Click to play this song!
Paramore
 Rating:
4.3/5 (12 votes)


  lessons Tabs too difficult? Try these video lessons and learn fast
 
                Verse 1]
e|-----|-------------------------|
B|--6--|---13---13-----10---10---|
G|--3--|---10---10-----7----7----|
D|-----|-------------------------|
A|-----|-------------------------|
E|-----|-------------------------| 

e|-----|-------------------------|
B|--6--|---13---13-----10---10---|
G|--3--|---10---10-----7----7----|
D|-----|-------------------------|
A|-----|-------------------------|
E|-----|-------------------------| 

e|-----|-------------------------|
B|--6--|---13---13-----10---10---|
G|--3--|---10---10-----7----7----|
D|-----|-------------------------|
A|-----|-------------------------|
E|-----|-------------------------| 

e|-----|--------------------|
B|--6--|---13---13-----10---|
G|--3--|---10---10-----7----|
D|-----|--------------------|
A|-----|--------------------|
E|-----|--------------------|

[Chorus]
e|---------6------------|--8-6-5----------5--|
B|--6-8-10-----10-------|--------8---6-------|
G|-------------------7--|--------------------|
D|----------------------|--------------------|
A|----------------------|--------------------|
E|----------------------|--------------------| 

e|---------6------------|--8-6-5----------5--|
B|--6-8-10-----10-------|--------8---6-------|
G|-------------------7--|--------------------|
D|----------------------|--------------------|
A|----------------------|--------------------|
E|----------------------|--------------------| 

e|---------6------------|--8-6-5----------5--|
B|--6-8-10-----10-------|--------8---6-------|
G|-------------------7--|--------------------|
D|----------------------|--------------------|
A|----------------------|--------------------|
E|----------------------|--------------------| 

e|---------6------------|--8-6-5----------5--|
B|--6-8-10-----10-------|--------8---6-------|
G|-------------------7--|--------------------|
D|----------------------|--------------------|
A|----------------------|--------------------|
E|----------------------|--------------------| 

[Post-Chorus]
e|--13-10-12-8-13-10-12-8--|--13-10-12-8-13-10-12-8--|
B|-------------------------|-------------------------|
G|-------------------------|-------------------------|
D|-------------------------|-------------------------|
A|-------------------------|-------------------------|
E|-------------------------|-------------------------| 

e|--13-10-12-8-13-10-12-8--|--13-10-12-8-13-10-12-8--|
B|-------------------------|-------------------------|
G|-------------------------|-------------------------|
D|-------------------------|-------------------------|
A|-------------------------|-------------------------|
E|-------------------------|-------------------------| 

[Verse 2]
e|-----|-------------------------|
B|--6--|---13---13-----10---10---|
G|--3--|---10---10-----7----7----|
D|-----|-------------------------|
A|-----|-------------------------|
E|-----|-------------------------| 

e|-----|-------------------------|
B|--6--|---13---13-----10---10---|
G|--3--|---10---10-----7----7----|
D|-----|-------------------------|
A|-----|-------------------------|
E|-----|-------------------------|

e|-----|-------------------------|
B|--6--|---13---13-----10---10---|
G|--3--|---10---10-----7----7----|
D|-----|-------------------------|
A|-----|-------------------------|
E|-----|-------------------------|

e|-----|--------------------|
B|--6--|---13---13-----10---|
G|--3--|---10---10-----7----|
D|-----|--------------------|
A|-----|--------------------|
E|-----|--------------------|

[Chorus]
e|---------6------------|--8-6-5----------5--|
B|--6-8-10-----10-------|--------8---6-------|
G|-------------------7--|--------------------|
D|----------------------|--------------------|
A|----------------------|--------------------|
E|----------------------|--------------------|

e|---------6------------|--8-6-5----------5--|
B|--6-8-10-----10-------|--------8---6-------|
G|-------------------7--|--------------------|
D|----------------------|--------------------|
A|----------------------|--------------------|
E|----------------------|--------------------| 

e|---------6------------|--8-6-5----------5--|
B|--6-8-10-----10-------|--------8---6-------|
G|-------------------7--|--------------------|
D|----------------------|--------------------|
A|----------------------|--------------------|
E|----------------------|--------------------| 

e|---------6------------|--8-6-5----------5--|
B|--6-8-10-----10-------|--------8---6-------|
G|-------------------7--|--------------------|
D|----------------------|--------------------|
A|----------------------|--------------------|
E|----------------------|--------------------| 

[Post-Chorus]
e|--13-10-12-8-13-10-12-8--|--13-10-12-8-13-10-12-8--|
B|-------------------------|-------------------------|
G|-------------------------|-------------------------|
D|-------------------------|-------------------------|
A|-------------------------|-------------------------|
E|-------------------------|-------------------------| 

e|--13-10-12-8-13-10-12-8--|--13-10-12-8-13-10-12-8--|
B|-------------------------|-------------------------|
G|-------------------------|-------------------------|
D|-------------------------|-------------------------|
A|-------------------------|-------------------------|
E|-------------------------|-------------------------| 

[Chorus]
e|---------6------------|--8-6-5----------5--|
B|--6-8-10-----10-------|--------8---6-------|
G|-------------------7--|--------------------|
D|----------------------|--------------------|
A|----------------------|--------------------|
E|----------------------|--------------------| 

e|---------6------------|--8-6-5----------5--|
B|--6-8-10-----10-------|--------8---6-------|
G|-------------------7--|--------------------|
D|----------------------|--------------------|
A|----------------------|--------------------|
E|----------------------|--------------------| 

e|---------6------------|--8-6-5----------5--|
B|--6-8-10-----10-------|--------8---6-------|
G|-------------------7--|--------------------|
D|----------------------|--------------------|
A|----------------------|--------------------|
E|----------------------|--------------------| 

e|---------6------------|--8-6-5----------5--|
B|--6-8-10-----10-------|--------8---6-------|
G|-------------------7--|--------------------|
D|----------------------|--------------------|
A|----------------------|--------------------|
E|----------------------|--------------------|             
Submit corrections



         lessons Hard to play? Try these video lessons and learn fast  lessons
        
↑ Back to top | Tablatures and chords for acoustic guitar and electric guitar, ukulele, drums are parodies/interpretations of the original songs. You may use it for private study, scholarship, research or language learning purposes only