Home » P » Paramore »

Paramore - Pool Tabs

Artists:  A B C D E F G H I J K L M N O P Q R S T U V W X Y Z # 

Pool Tabs

(ver. 2) Click to play this song!
Paramore
[Intro]
I
Lyre +
Keys(0:08)
e|-10-------12-------|--10-------12-------|--10-------12-------|--10-------12-------|
B|----10-13----12-13-|-13--10-13----12-13-|-13--10-13----12-13-|-13--10-13----12-13-|
G|-------------------|--------------------|--------------------|--------------------|
D|-------------------|--------------------|--------------------|--------------------|
A|-------------------|--------------------|--------------------|--------------------|
E|-------------------|--------------------|--------------------|--------------------|

II

Keys(0:08) Do in Verse I
e|---10-------12-------|--10-------12-------|--10-------12-------|--10-------12-------|
B|-13---10-13----12-13-|-13--10-13----12-13-|-13--10-13----12-13-|-13--10-13----12-13-|
G|---------------------|--------------------|--------------------|--------------------|
D|---------------------|--------------------|--------------------|--------------------|
A|---------------------|--------------------|--------------------|--------------------|
E|---------------------|--------------------|--------------------|--------------------|
 |
e|---------------------|--------------------|--------------------|---15-13-12-----15-13-12-----|
e|---------------------|--------------------|--------------------|--13-------13--13-------13---|
G|---------------------|--------------------|--------------------|-----------------------------|
D|---------------------|--------------------|--------------------|-----------------------------|
A|---------------------|--------------------|--------------------|-----------------------------|
E|---------------------|--------------------|--------------------|-----------------------------|

Left SG add Delay
e|---------------------|--------------------|--------------------|--------------------|
B|--10----(10)---------|--10----(10)--------|--8-------(8)-------|--3-------(3)-------|
G|--9-----(9)----------|--9-----(9)---------|--9-------(9)-------|--4-------(4)-------|
D|--10----(10)---------|--10----(10)--------|--10------(10)------|--5-------(5)-------|
D|--8-----(8)----------|--8-----(8)---------|--10------(10)------|--5-------(5)-------|
E|---------------------|--------------------|--------------------|--------------------|

II
Keys: Same

Left SG (Phaser)(reverb)
e|------------------|---------------------|-------------------------|--------------------|
B|------------------|---------------------|-------------------------|--------------------|
G|-5-5-5-5-5-5-5-5--|-7-7-7-7-9--9--9--9--|-9--9--9--9--9--9--9--9--|-4-4-4-4-4-4-4-4----|
D|-7-7-7-7-7-7-7-7--|-9-9-9-9-10-10-10-10-|-10-10-10-10-10-10-10-10-|-5-5-5-5-5-5-5-5----|
A|------------------|---------------------|-------------------------|--------------------|
E|------------------|---------------------|-------------------------|--------------------|


[Verse]

Left SG add Delay
e|---------------------|--------------------|--------------------|--------------------|
B|--10----(10)---------|--10----(10)--------|--8-------(8)-------|--3-------(3)-------|
G|--9-----(9)----------|--9-----(9)---------|--9-------(9)-------|--4-------(4)-------|
D|--10----(10)---------|--10----(10)--------|--10------(10)------|--5-------(5)-------| 2x
D|--8-----(8)----------|--8-----(8)---------|--10------(10)------|--5-------(5)-------|
E|---------------------|--------------------|--------------------|--------------------|

Left SG (Phaser)(reverb)
e|------------------|---------------------|-------------------------|--------------------|
B|------------------|---------------------|-------------------------|--------------------|
G|-5-5-5-5-5-5-5-5--|-7-7-7-7-9--9--9--9--|-9--9--9--9--9--9--9--9--|-4-4-4-4-4-4-4-4----|
D|-7-7-7-7-7-7-7-7--|-9-9-9-9-10-10-10-10-|-10-10-10-10-10-10-10-10-|-5-5-5-5-5-5-5-5----| 2x
A|------------------|---------------------|-------------------------|--------------------|
E|------------------|---------------------|-------------------------|--------------------|

[Chorus]
Left SG
    C          G      F                        C             G      F
e|-v12----------------v12-----------------15-|-v12------------------v12----------v13-v12--15--|
B|----v13-v15------------v13-v15-------------|-----v13-v12---------------v13-v15--------------|
G|-----------v14-v12-------------12h14-12----|-------------v14-v12----------------------------|
A|-------------------------------------------|------------------------------------------------|
A|-------------------------------------------|------------------------------------------------|
E|-------------------------------------------|------------------------------------------------|
    C          Em    F                         C            G    F
e|-v12----------------v12-----------------15-|-v12-----------------------------------12-------|
B|----v13-v15-v12--------v13-v15-v12-v13-----|-----v13-v15-----------h13-v---13--15------15---|
G|---------------v12-------------------------|-------------v14-v12h14-------------------------|
A|-------------------------------------------|------------------------------------------------|
A|-------------------------------------------|------------------------------------------------|
E|-------------------------------------------|------------------------------------------------|

Right SG Do Chords 

[Verse 2]

Right SG
             Delay  
e|-----------------------------------------------12---------------|
B|--10-10-10-10-10-10-10-10--------------------12--12-------------|
G|-9--9--9--9--9--9--9--9-----9--9--9--9-----12------12--12-------|
D|--------------------------10-10-10-10-10-12----------12---------|
A|----------------------------------------------------------------|
E|----------------------------------------------------------------|
   * * * * * * * * * *      * * * * * * *

                      Delay  
e|---------------------------------------------------------------|
B|--10-10-10-10-10-10-10-10--------------------12------8---------|
G|-9--9--9--9--9--9--9--9-----9--9--9--9-----12--12--9--9--------|
D|--------------------------10-10-10-10-10-12------10------------|
A|---------------------------------------------------------------|
E|---------------------------------------------------------------|
   * * * * * * * * * *      * * * * * * *


Left SG add Delay
e|---------------------|--------------------|--------------------|--------------------|
B|--10----(10)---------|--10----(10)--------|--8-------(8)-------|--3-------(3)-------|
G|--9-----(9)----------|--9-----(9)---------|--9-------(9)-------|--4-------(4)-------|
D|--10----(10)---------|--10----(10)--------|--10------(10)------|--5-------(5)-------|
D|--8-----(8)----------|--8-----(8)---------|--10------(10)------|--5-------(5)-------|
E|---------------------|--------------------|--------------------|--------------------|

e|---------------------|--------------------|--------------------|--------------------|
B|--10----(10)---------|--10----(10)--------|--8-------(8)-------|--------------------|
G|--9-----(9)----------|--9-----(9)---------|--9-------(9)-------|--------------------|
D|--10----(10)---------|--10----(10)--------|--10------(10)------|--------------------|
D|--8-----(8)----------|--8-----(8)---------|--10------(10)------|--------------------|
E|---------------------|--------------------|--------------------|--------------------|

Right SG (Phaser)(reverb)
e|------------------|---------------------|-------------------------|--------------------|
B|------------------|---------------------|-------------------------|--------------------|
G|-5-5-5-5-5-5-5-5--|-7-7-7-7-9--9--9--9--|-9--9--9--9--9--9--9--9--|-4-4-4-4-4-4-4-4----|
D|-7-7-7-7-7-7-7-7--|-9-9-9-9-10-10-10-10-|-10-10-10-10-10-10-10-10-|-5-5-5-5-5-5-5-5----|
A|------------------|---------------------|-------------------------|--------------------|
E|------------------|---------------------|-------------------------|--------------------|

e|------------------|---------------------|-------------------------|--------------------|
B|------------------|---------------------|-------------------------|--------------------|
G|-5-5-5-5-5-5-5-5--|-7-7-7-7-9--9--9--9--|-9--9--9--9--9--9--9--9--|--------------------|
D|-7-7-7-7-7-7-7-7--|-9-9-9-9-10-10-10-10-|-10-10-10-10-10-10-10-10-|--------------------|
A|------------------|---------------------|-------------------------|--------------------|
E|------------------|---------------------|-------------------------|--------------------|
 
[Do Chorus]

[Bridge]
Left SG
e|----------------------|---------------------|--------------------------------------|
B|----------------------|---------------------|-----------------------------12--13---|
G|-------0-----9--------|-------0-----9-------|-----0---9-v9----------0-------12-----|
D|----10--------10------|----10--------10-----|---10--10---------------------------9-|
A|--8-------8------888--|--8-------8------888-|--------------10-10--10-10-10---------|
E|----------------------|---------------------|--8-----------------------------------|

e|----------------------|---------------------|--------------------------------------|
B|----------------------|---------------------|---------------------0--0--0--0-------|
G|-------0-----9--------|-------0-----9-------|-----0---9-v9--------9--9--9--9-------|
D|----10--------10------|----10--------10-----|---10--10-----------10-10-10-10-------|
A|--8-------8------888--|--8-------8------888-|--------------10-10-10-10-10-10-------|
E|----------------------|---------------------|--8-----------------------------------|

e|----------------------|---------------------|--------------------------------------|
B|----------------------|---------------------|-----------------------------12--13-12|
G|-------0-----9--------|-------0-----9-------|-----0---9-v9----------0-------12-----|
D|----10--------10------|----10--------10-----|---10--10-----------------------------|
A|--8-------8------888--|--8-------8------888-|--------------10-10--10-10-10---------|
E|----------------------|---------------------|--8-----------------------------------|

e|----------------------|---------------------|------------8-------------------------|
B|----------------------|---------------------|------------10-------0--0--0--0-------|
G|-------0-----9--------|-------0-----9-------|-----0---9-v9--------9--9--9--9-------|
D|----10--------10------|----10--------10-----|---10--10-----------10-10-10-10-------|
A|--8-------8------888--|--8-------8------888-|--------------10-10-10-10-10-10-------|
E|----------------------|---------------------|--8-----------------------------------|

Right SG 2x
e|----------------------|--------------------|--------------------|--------------------|
B|----------------------|--------------------|--------------------|--------------------|
G|-------0--------0-----|------0--------0----|------0--------0----|-------0-----0------|
D|----10---10--10---10--|---10---10--10---10-|---10---10--10---10-|-----9---9--9--9----|
A|--8--------8----------|-8--------8---------|--------------------|--10------10--------|
E|----------------------|--------------------|--8--------8--------|--------------------|

e|----------------------|--------------------|--------------------|--------------------|
B|----------------------|--------------------|--------------------|--------------------|
G|-------0--------0-----|------0--------0----|------0--------0----|-5--7--9--5---------|
D|----10---10--10---10--|---10---10--10---10-|---10---10--10---10-|--------------------|
A|--8--------8----------|-8--------8---------|--------------------|-3--5--7--5---------|
E|----------------------|--------------------|--8--------8--------|--------------------|


[ Last Chorus 2x ]


[Outro]
Left SG
e|----------12----------------12---------------------------------------------|
B|--13--15------15----13--15------15-----------------------------------------|
G|---------------------------------------------------------------------------|
D|---------------------------------------------------------------------------|
A|---------------------------------------------------------------------------|
E|---------------------------------------------------------------------------|

Right SG
e|---------------------------------------------------------------------------|
B|---------------------------------------------------------------------------|
G|--5---7---9---7------5---7---9---7-----------------------------------------|
D|---------------------------------------------------------------------------|
A|--3---5---7---5------3---5---7---5-----------------------------------------|
E|---------------------------------------------------------------------------|
            
Submit corrections

↑ Back to top | Tablatures and chords for acoustic guitar and electric guitar, ukulele, drums are parodies/interpretations of the original songs. You may use it for private study, scholarship, research or language learning purposes only