» » »

Paramore - Fake Happy Tabs

Artists:  A B C D E F G H I J K L M N O P Q R S T U V W X Y Z # 

Fake Happy Tabs

(ver. 1) Click to play this song!
Paramore
 Rating:
4.4/5 (8 votes)

 Fake Happy  lessons Tabs too difficult? Try these video lessons and learn fast
 
                [Intro]

Left Speaker (Acoustic) 
    G      D7    Em     C            G     D7    Em       C
e|-----3------2------0---------3---|---3----3-2----0--------------3----------|
B|-----3------1------0--1--3/5---5-|---3------1----0----3-1--3/5----5--------|
B|--0--0------2----0-0-------------|-0-0------2----0--4----------------------|
D|---------0-----2-----------------|-------0-----2---------------------------|
A|----------------------3----------|----------------------3------------------|
E|--3------------0-----------------|-3-----------0---------------------------|                                                                      


    G      D7 B7    Em  C            G     D7    Em       C
e|-----3-----8-----7-7---------3---|---3------2-----0--------------3---------|
B|-----3-------8-----8--1--3/5---5-|---3---3--3-----0---3-1--3/5----5--------|
B|--0--0---7---8-/9--9-------------|-0-0------2---0-0--4---------------------|
D|---------0-----------------------|-------0-----2---------------------------|
A|----------------------3----------|----------------------3------------------|
E|--3------------------------------|-3-----------0---------------------------| 

[Intro2]

Keyboards

Left Speaker
e|------------------------|-----------------------|-----------------------|-----------------------|
B|---8--8---8--8--7--8--7-|--8--8---8--8--7--8--7-|--8--8---8--8--7--8--7-|--8--8---8--8--7--8--7-|
G|---9--9---9--9--7--9--7-|--9--9---9--9--7--9--7-|--9--9---9--9--7--9--7-|--9--9---9--9--7--9--7-|
D|--10-10--10-10--9-10--9-|-10-10--10-10--9-10--9-|-10-10--10-10--9-10--9-|-10-10--10-10--9-10--9-|
A|------------------------|-----------------------|-----------------------|-----------------------|
E|------------------------|-----------------------|-----------------------|-----------------------|

Right Speaker
e|------------------------|-----------------------|-----------------------|--7-7------------------|
B|---8--8---8--8--7--8--7-|--8--8---8--8--7--8--7-|--8--8---8--8--7--8--7-|--------10-8-7---------|
G|---9--9---9--9--7--9--7-|--9--9---9--9--7--9--7-|--9--9---9--9--7--9--7-|----------------9-7----|
D|--10-10--10-10--9-10--9-|-10-10--10-10--9-10--9-|-10-10--10-10--9-10--9-|---------------------9-|
A|------------------------|-----------------------|-----------------------|-----------------------|
E|------------------------|-----------------------|-----------------------|-----------------------|


[Verse]
I
Left Speaker Guitar
e|------------------------|-----------------------|-----------------------|-----------------------|
B|------------------------|-----------------------|-----------------------|-----------------------|
G|------------------------|-----------------------|------------------4----|-----------------------|
D|------------------------|-----------------5-7---|-----------------------|------------------5-7--|
A|--5-7--5-7--5-7----5----|--5-7--5-7--5-7--------|---5-7--5-7--5-7-------|---5-7--5-7--5-7-------|
E|------------------------|-----------------------|-----------------------|-----------------------|
    * *  * *  * *    *       * *  * *  * *  * *       * *  * *  * *  *        * *  * *  * *  * *
Right Speaker(Keys)
e|------------------------|-----------------------|-----------------------|-----------------------|
B|------------------------|----------------8--10--|-----------------------|----------------8--10--|
G|--7-9--7-9--7-9----7----|--7-9--7-9--7-9--------|--7-9--7-9--7-9----7---|--7-9--7-9--7-9--------|
D|------------------------|-----------------------|-----------------------|-----------------------|
A|------------------------|-----------------------|-----------------------|-----------------------|
E|------------------------|-----------------------|-----------------------|-----------------------|
    * *  * *  * *    *       * *  * *  * *  *  *     * *  * *  * *    *      * *  * *  * *  *  *
II
Left Speaker Guitar
e|------------------------|-----------------------|-----------------------|-----------------------|
B|------------------------|-----------------------|-----------------------|-----------------------|
G|------------------------|-----------------------|------------------4----|---------------------7-|
D|------------------------|-----------------5-7---|-----------------------|---------------5-7/9---|
A|--5-7--5-7--5-7----5----|--5-7--5-7--5-7--------|---5-7--5-7--5-7-------|-5-7--5-7--5-7---------|
E|------------------------|-----------------------|-----------------------|-----------------------|
    * *  * *  * *    *       * *  * *  * *  * *       * *  * *  * *  *      * *  * *  * * * 
Right Speaker(Keys)
e|------------------------|-----------------------|-----------------------|-----------------------|
B|------------------------|----------------8--10--|-----------------------|----------------8--10--|
G|--7-9--7-9--7-9----7----|--7-9--7-9--7-9--------|--7-9--7-9--7-9----7---|--7-9--7-9--7-9--------|
D|------------------------|-----------------------|-----------------------|-----------------------|
A|------------------------|-----------------------|-----------------------|-----------------------|
E|------------------------|-----------------------|-----------------------|-----------------------|
    * *  * *  * *    *       * *  * *  * *  *  *     * *  * *  * *    *      * *  * *  * *  *  *
 Right Speker(Guitar)- Add Phaser ,Chorus,Reverb- Do until Refrain
e|----3-----3------3-----3----3------3-----3-----3--------3-------3----------|
B|-----3------3------3-----3----3------3-----3------3--------3------3--------|
G|--0----0------0------0-----0-----0-----0-----0------0---------0-----0------|
D|---------------------------------------------------------------------------|
A|---------------------------------------------------------------------------|
E|---------------------------------------------------------------------------|


[Refrain]
Keyboards

Left Speaker
e|------------------------|-----------------------|-----------------------|-----------------------|
B|---8--8---8--8--7--8--7-|--8--8---8--8--7--8--7-|--8--8---8--8--7--8--7-|--8--8---8--8--7--8--7-|
G|---9--9---9--9--7--9--7-|--9--9---9--9--7--9--7-|--9--9---9--9--7--9--7-|--9--9---9--9--7--9--7-|
D|--10-10--10-10--9-10--9-|-10-10--10-10--9-10--9-|-10-10--10-10--9-10--9-|-10-10--10-10--9-10--9-|
A|------------------------|-----------------------|-----------------------|-----------------------|
E|------------------------|-----------------------|-----------------------|-----------------------|

Right Speaker
e|------------------------|-----------------------|-----------------------|--7-7------------------|
B|---8--8---8--8--7--8--7-|--8--8---8--8--7--8--7-|--8--8---8--8--7--8--7-|--------10-8-7---------|
G|---9--9---9--9--7--9--7-|--9--9---9--9--7--9--7-|--9--9---9--9--7--9--7-|----------------9-7----|
D|--10-10--10-10--9-10--9-|-10-10--10-10--9-10--9-|-10-10--10-10--9-10--9-|---------------------9-|
A|------------------------|-----------------------|-----------------------|-----------------------|
E|------------------------|-----------------------|-----------------------|-----------------------|

Left Speaker(Guitar)
e|------------------------|-----------------------|-------------------12^-|-----------------------|
B|------------------------|-----------------------|-----------------------|-----------------------|
G|------------------------|-----------------------|-----------------------|-----------------------|
D|------------------------|-----------------------|-----------------------|-----------------------|
A|------------------------|-----------------------|-----------------------|-----------------------|
E|------------------------|-----------------------|-----------------------|-----------------------|


[Chorus]
    G        C           Bm      C       Em      D          G
    Pls...   Pretend...  Pls...  Every.. Here..  Happy...   too..
e|--3------------------------------------7-------5--------------|
B|--3--------8-----------7-------8-------8-------7----------8---|
G|--0--------0-----------7-------0-------0-------7----------0---|
D|--0--------0-----------0-------0-------x-------0--------------|
A|--2--------7-----------x-------7-------7----------------------|
E|--3--------8-----------7-------8------------------------------|
    
    G                             G
e|------------10--7--------------------------10---7-------------|
B|-------7h9----------10---8-----------7h9-----------10--8------|
G|--7h9---------------------------7h9---------------------------|
D|--------------------------------------------------------------|
A|--------------------------------------------------------------|
E|--------------------------------------------------------------|

Do Keyboard Intro
Do Same to Verse
Do Refrain-(keys only)

Left Speaker
e|------------------------|-----------------------|-----------------------|-----------------------|
B|---8--8---8--8--7--8--7-|--8--8---8--8--7--8--7-|--8--8---8--8--7--8--7-|--8--8---8--8--7--8-10-|
G|---9--9---9--9--7--9--7-|--9--9---9--9--7--9--7-|--9--9---9--9--7--9--7-|--9--9---9--9--7--9-11-|
D|--10-10--10-10--9-10--9-|-10-10--10-10--9-10--9-|-10-10--10-10--9-10--9-|-10-10--10-10--9-10-12-|
A|------------------------|-----------------------|-----------------------|-----------------------|
E|------------------------|-----------------------|-----------------------|-----------------------|

[Bridge]
Keys
e|---------------------------------------------------------------------------|
B|-------12------------------------------------------------------------------|
G|-12h14---h14-----12h14---h14-------12h14---h14------12h14---h14------------|
D|---------------------------------------------------------------------------|
A|---------------------------------------------------------------------------|
E|---------------------------------------------------------------------------|

Badap badap bap bap...

Left Speaker Guitar ( Muted )
e|---------------------------------------------------------------------------|
B|---------------------------------------------------------------------------|
G|-0-2-4-4--0-2-4-4--0-2-4-4--0-2-4-4--0-2-4-4--0-2-4-4--0-2-4-4--0-2-4-4----|
D|---------------------------------------------------------------------------|
A|---------------------------------------------------------------------------|
E|---------------------------------------------------------------------------|

e|---------------------------------------------------------------------------|
B|---------------------------------------------------------------------------|
G|-----0-0------0-0-----0-0----0-0-----0-0-----0-0-----0-0-----0-0-----------|
D|-0-2------0-2-----0-2-----0-2-----0-2-----0-2-----0-2-----0-2--------------|
A|---------------------------------------------------------------------------|
E|---------------------------------------------------------------------------|

e|---------------------------------------------------------------------------|
B|---------------------------------------------------------------------------|
G|-0-2-4-4--0-2-4-4-----0-0-----0-0--0-2-4-4--0-2-4-4---0-2-2---0-2-2--------|
D|------------------0-2-----0-2-----------------------0-------0--------------|
A|---------------------------------------------------------------------------|
E|---------------------------------------------------------------------------|

e|---------------------------------------------------------------------------|
B|---------------------------------------------------------------------------|
G|-0-2-4-4--0-2-4-4--0-2-4-4--0-2-4-4--0-2-4-4--0-2-4-4--0-2-4-4--0-2-4-4----|
D|---------------------------------------------------------------------------|
A|---------------------------------------------------------------------------|
E|---------------------------------------------------------------------------|

Right Speaker Guitar ( Muted )
e|---------------------------------------------------------------------------|
B|---------------------------------------------------------------------------|
G|-7-7-9-9--7-7-9-9--7-7-9-9--7-7-9-9--7-7-9-9--7-7-9-9--7-7-9-9--7-7-9-9----|
D|---------------------------------------------------------------------------|
A|---------------------------------------------------------------------------|
E|---------------------------------------------------------------------------|

e|---------------------------------------------------------------------------|
B|---------------------------------------------------------------------------|
G|-0-2-4-4--0-2-4-4--0-2-4-4--0-2-4-4--0-2-4-4--0-2-4-4----------------------|
D|-------------------------------------------------------2~-0~---------------|
A|--------------------------------------------------------------3-3h5--------|
E|---------------------------------------------------------------------------|

e|---------------------------------------------------------------------------|
B|---------------------------------------------------------------------------|
G|-7-7-9-9--7-7-9-9--0-2-4-4--0-2-4-4--7-7-9-9--7-7-9-9--9-9-11-11-9-9-11-11-|
D|--------------------------------------------------------------------------|
A|---------------------------------------------------------------------------|
E|---------------------------------------------------------------------------|

e|---------------------------------------------------------------------------|
B|---------------------------------------------------------------------------|
G|-11-11-12-12-11-11-12-12-11-11-12-12-11-11-12-12-(2x)----------------------|
D|---------------------------------------------------------------------------|
A|---------------------------------------------------------------------------|
E|---------------------------------------------------------------------------|


[Chorus]
    G       Bm  C         Bm      C       Em      D          G
    Pls...   Pretend...  Pls...  Every.. Here..  Happy...   too..
e|--3-------------------------------------7-------5--------------|
B|--3-------7-8-----------7-------8-------8-------7----------8---|
G|--0-------7-0-----------7-------0-------0-------7----------0---|
D|--0-------0-0-----------0-------0-------x-------0--------------|
A|--2-------x-7-----------x-------7-------7----------------------|
E|--3-------7-8-----------7-------8------------------------------|
    
    G                             G
e|------------10--7--------------------------10---7-------------|
B|-------7h9----------10---8-----------7h9-----------10--8------|
G|--7h9---------------------------7h9---------------------------|
D|--------------------------------------------------------------|
A|--------------------------------------------------------------|
E|--------------------------------------------------------------|

[Outro]
Badap...
Right Speaker Guitar(do chorus chords)
Left Speaker Guitar
e|------------10--7--------------------------10---7-------------|
B|-------7h9----------10---8-----------7h9-----------10--8------|
G|--7h9---------------------------7h9---------------------------|
D|--------------------------------------------------------------|
A|--------------------------------------------------------------|
E|--------------------------------------------------------------|

e|------------10--8---7---------------------10--8-7-------------|
B|-------7h9-------------8------------7h9-------------8---------|
G|--7h9---------------------------7h9---------------------------|
D|--------------------------------------------------------------|
A|--------------------------------------------------------------|
E|--------------------------------------------------------------|

e|------------10--7--------------------------10-----7-----------|
B|-------7h9----------10---8-----------7h9-------10----8--------|
G|--7h9---------------------------7h9---------------------------|
D|--------------------------------------------------------------|
A|--------------------------------------------------------------|
E|--------------------------------------------------------------|

e|------------10--7--------------------------10-----7-----------|
B|-------7h9----------10---8-----------7h9-------10----8--------|
G|--7h9---------------------------7h9---------------------------|
D|--------------------------------------------------------------|end
A|--------------------------------------------------------------|
E|--------------------------------------------------------------|            
Submit corrections


        Fake Happy  lessons Hard to play? Try these video lessons and learn fast Fake Happy  lessons
        
↑ Back to top | Tablatures and chords for acoustic guitar and electric guitar, ukulele, drums are parodies/interpretations of the original songs. You may use it for private study, scholarship, research or language learning purposes only