Home » P » Paramore »

Paramore - Decode Bass

Artists:  A B C D E F G H I J K L M N O P Q R S T U V W X Y Z # 

Decode Bass

(ver. 2) Click to play this song!
Paramore
Paramore
Decode
Twilight Soundtrack
2008

Key: C#

Tuning: Standard EADG


Verses:
G|-----------------|-----------------|-----------------|-----------------|
D|-----------------|-----------------|-----------------|-----------------|
A|-----------------|-6-6-6-6-6-6-6-6-|-1-1-1-1-1-1-1-1-|-----------------| x2
E|-2-2-2-2-2-2-2-2-|-----------------|-----------------|-1-1-1-1-1-1-1-1-|

G|---|---|---|---|
D|---|---|---|---|
A|---|-6-|-1-|---|
E|-2-|---|---|-1-|


Chorus:
G|-----------------|-----------------|-----------------|-----------------|
D|-----------------|-----------------|-----------------|-----------------|
A|-----------------|-6-6-6-6-6-6-6-6-|-1-1-1-1-1-1-1-1-|-----------------| x2
E|-2-2-2-2-2-2-2-2-|-----------------|-----------------|-1-1-1-1-1-1-1-1-|


Post Chorus:
G|---------------|---|---------------|---|
D|---------------|---|---------------|---|
A|-1-1-1-1-1-1-1-|-4-|---------------|---|
E|---------------|---|-4-4-4-4-4-4-4-|-1-|


Guitar Solo:
G|-----------------|-----------------|-----------------|-----------------|
D|-----------------|-----------------|-----------------|-----------------|
A|-----------------|-6-6-6-6-6-6-6-6-|-1-1-1-1-1-1-1-1-|-----------------| x2
E|-2-2-2-2-2-2-2-2-|-----------------|-----------------|-1-1-1-1-1-1-1-1-|


Bridge: Do you see, what we've done"
G|---|---|---|---|
D|---|---|---|---|
A|---|-6-|-1-|---| x2
E|-2-|---|---|-1-|

G|-----------------|-----------------|-----------------|-----------------|
D|-----------------|-----------------|-----------------|-----------------|
A|-----------------|-6-6-6-6-6-6-6-6-|-1-1-1-1-1-1-1-1-|-----------------| x2
E|-2-2-2-2-2-2-2-2-|-----------------|-----------------|-1-1-1-1-1-1-1-1-|


Outro: "I think I know"
G|---|---|---|-----|---|---|---|
D|---|---|---|-----|---|---|---|
A|---|---|-6-|-1---|---|-1-|---| x4
E|-2-|-4-|---|---1-|-2-|---|-1-|

G|---------|
D|---------|
A|-6--6--6-|
E|---------|
            
Submit corrections

↑ Back to top | Tablatures and chords for acoustic guitar and electric guitar, ukulele, drums are parodies/interpretations of the original songs. You may use it for private study, scholarship, research or language learning purposes only