» » »

Paramore - Brick By Boring Brick Tabs

Artists:  A B C D E F G H I J K L M N O P Q R S T U V W X Y Z # 

Brick By Boring Brick Tabs

(ver. 2) Click to play this song!
Paramore
 Rating:
4.6/5 (10 votes)


 Brick By Boring Brick lessons Tabs too difficult? Try these video lessons and learn fast
 
                Tuning - Half step down
-on verses
F#m2(x 9 11 x 0 0)
C#m2(9 x 11  11 0 0)
D2  (10 x 11 11 0 0)
A2  (x 0 11 9 0 0)

on refrains
E-  (0 2 2  1 0 0)
F#m (2 4 4  x 0 0)
D  (x 5 7 7 0 0)
E/G#2(4 7 6 x 0 0)

Chorus
A    (5 7 7 6 0 0)
C#m7 (9 x 9  9 0 0)
F#m (2 4 4  x 0 0)
E-  (0 2 2  1 0 0)

Bridge-
F#m2(x 9 11 x 0 0)
D2  (10 x 11 11 0 0)
A    (5 7 7 6 0 0)
E-  (0 2 2  1 0 0)


those-with #5 are in power chords(parts played by bass)

Intro- F#m2 C#m2-D2 A2 2x

Verse-Jeremy only(bass)
F#5           C#5-D5
She lives in a fairy tale
A5
Somewhere too far for us to find
F#5           C#5      D5
Forgotten the taste and smell
A5
Of the world that she's left behind

Josh enters

F#m2       C#m2-D2   A2            A2
It's all about the exposure the lens I told her
F#m2             C#m2-D2
The angles were all wrong now
A2
She's ripping wings off of butterflies

Refrain-
E                    E      F#m-D
With her feet on the ground
E                    E      F#m-E/G#
And her head in the clouds

Chorus-2x
A
Well go get your shovel
    C#m7
And we'll dig a deep hole
   F#m               E
To bury the castle, bury the castle


Ba da ba da ba
Intro-F#m2 C#m2-D2 A2 2x

Do verse
So one day he found her crying
Coiled up on the dirty ground
Her prince finally came to save her
And the rest you can figure out
But it was a trick
And the clock struck twelve
Well make sure to build your house brick by boring brick
Or the wolves gonna blow it down

Do refrain-chorus
With her feet on the ground
And her head in the clouds
Well go get your shovel
And we'll dig a deep hole
To bury the castle, bury the castle

Interlude-
F#m2   D2    A   E  2x

Bridge-
F#m2
Well you built up a world of magic
D2
Because your real life is tragic
A                                  E
Yeah you built up a world of magic

                A
If it's not real
                              C#m7
You can't see it with your eyes
                              F#m
You can't feel it with your heart
    E
And I won't believe it
      A
Cause if it's true
                            C#m7
You can see it with your eyes
             F#m
Even in the dark
             E
And that's where I want to be, yeah

Do chorus
Go get your shovel
We'll dig a deep hole
To bury the castle, bury the castle
Ba da ba da ba...


Intro-
josh
|-0---------------0--------------0--------------0---------|
|-0---------------0--------------0--------------0---------|
|-11--(4x)--------11---(2x)------11--(2x)-------9---(8x)--|
|-11--------------11-------------11-------------11--------|
|-9---------------------------------------------0---------|
|-----------------9--------------10-----------------------|

Taylor's part

0:12
|----------------------------------|
|----------7~---5~-----------------|
|-------4~---------6~----6^r~------|2x
|-2/4------------------------------|
|----------------------------------|
|----------------------------------|


Verse-
0:36
|----------------------------------|
|----------7~---5~-----------------|
|------------------6~----6^r~------|2x
|-2/4------------------------------|
|----------------------------------|
|----------------------------------|


Refrain-
0:46
|---------------------------------------------------------|
|---------------------------------------------------------|
|---------------------------------------------------------|
|--9~----(9~)----11~------7~-----6~----(6)----7~----9~----|
|---------------------------------------------------------|
|---------------------------------------------------------|

Chorus-2x
1:00
|--------------------------------------------------------|
|------10-9-------------------------10-9~----------------|
|-2/6--------9~---------------2/6------------------------|
|--------------------------------------------------------|
|--------------------------------------------------------|
|--------------------------------------------------------|
1:06
|------0~-------------0~----------------------------------|
|------0~-------------0~----------------------------------|
|---------------------------------------------------------|
|-7/6------6/7--7\6--------11~-/-9~---9/11--11-s--9~------|
|---------------------------------------------------------|
|---------------------------------------------------------|


Then-Bass F# C#-D A
1:27                    2x
|--------|----------------------------------|
|--------|----------7~---5~-----------------|
|--6^r~--|-------4~---------6~----6^r~------|
|--------|-2/4------------------------------|
|--------|----------------------------------|
|--------|----------------------------------|

Do verse-chorus

Interlude-
|--------------------------------------------------------------|
|--------------------------------------------------------------|
|-xx-111111-666-4444444444-xx-777-141414-13131313131313131313--|
|-xx-----------------------xx----------------------------------|
|-xx-9-9-9--444-2222222222-xx-555-121212-11111111111111111111--|
|--------------------------------------------------------------|

|--------------------------------------------------|
|--------------------------------------------------|
|-xx-99999999-1111111111111111-66666666-44444444---|
|-xx-----------------------------------------------|
|-xx-77777777-9-9-9-9-9-9-9-9--44444444-22222222---|
|--------------------------------------------------|

Bridge-
|--------------------------------------------------------------|
|--------------------------------------------------------------|
|-xx-111111-666-4444-4-4-4-xx-777-141414-13131313131313131313--|
|-xx-----------------------xx----------------------------------|
|-xx-9-9-9--444-2222-2-2-2-xx-555-121212-11111111111111111111--|
|--------------------------------------------------------------|

|--------------------------------------------------|
|--------------------------------------------------|
|--xx999999999-9-9-9--66666666-44444444------------|
|--------------------------------------------------|
|--xx777777777-7-7-7--44444444-22222222------------|
|--------------------------------------------------|

3:10
|---------------------------------------------------------|
|-----------10-12--10-----9-10-------9~-------------------|
|----9--9--------------9----------------------------------|
|-11------------------------------------------------------|
|---------------------------------------------------------|
|---------------------------------------------------------|

Do chorus

3:46
|-0~------------------------------------------------------|
|-0~------------------------------------------------------|
|-0~------------------------------------------------------|
|---------------------------------------------------------|
|---------------------------------------------------------|
|---------------------------------------------------------|

4:06
|---------------------------------------------------------|
|---------------------------------------------------------|
|--6r~----6r~-----6r~----6r~------6r~-----6r~------6r~----|till end
|---------------------------------------------------------|
|---------------------------------------------------------|

|---------------------------------------------------------|
            
Submit corrections



        Brick By Boring Brick lessons Hard to play? Try these video lessons and learn fast Brick By Boring Brick lessons
        
↑ Back to top | Tablatures and chords for acoustic guitar and electric guitar, ukulele, drums are parodies/interpretations of the original songs. You may use it for private study, scholarship, research or language learning purposes only