Home » P » Paramore »

Paramore - Brick By Boring Brick Bass

Artists:  A B C D E F G H I J K L M N O P Q R S T U V W X Y Z # 

Brick By Boring Brick Bass

(ver. 3) Click to play this song!
Paramore
-------------------------------------------------------------------------------
			    Paramore - Brick by Boring Brick
-------------------------------------------------------------------------------


Tuning: standard
into/verse:
 guitar plays two main riffs over the drums bass comes in at the rundown of riff 2:
         intro                                             verse
G|--999-7-6---|   |------------------------------------------------------------------2224--|
D|----------7-|   |--44444444-----0000---------222-0--------------------0000--------2----2-|
A|------------|   |-----------4444----00000000-------4-0------------4444----00000000-------|
E|------------|   |----------------------------------------22222222------------------------|

play verse thought the whole verse

 build up
 (keep your feet on the ground...)
G|-----------------------------------1111111-----|
D|-2-2--2-2--4-4--0-0--2-2--2-2-4-4--------------|
A|-----------------------------------------------|
E|-----------------------------------------------|

chorus 
G|---------------------------------------------------------------------------|
D|-------------2~4~----------------------------------------------------------|
A|-000000000000-----4444444444444444-----------------------------------------|  x2
E|-----------------------------------2222222222222222-0000000000000000-------|

verse thought the whole verse 
build up
chorus 

 (castle, whoa-oa...)
G|---------------------------------------------------------------------------|
D|------------------0000000000000000---2--2-----2--2--22222222222222---------|
A|-2222222222222222------------------00-00-00-00-00-00-----------------------|
E|---------------------------------------------------------------------------|

G|---------------------------------------------------------------------------|
D|--------------------0000000000000000-------------------2222222222222222----|
A|--22222222222-2-2-2------------------00000000000-0-0-0---------------------|
E|---------------------------------------------------------------------------|

 (if its not real...) 
G|---------------------------------------------------------------------------|
D|---------------------------------------------------------------------------| 
A|---0000000000000000-4444444444444444---------------------------------------|   x2
E|-------------------------------------2222222222222222-0000000000000000-----|

chorus this time:
G|---------------------------------------------------------------------------|
D|--------------2~4~-------------------------------------------22222222------|  
A|-000000000000------4444444444444444----------------------------------------|
E|------------------------------------2222222222222222-00000000--------------|

play verse till the end

| /  slide up
| \  slide down
| h  hammer-on
| p  pull-off
| ~  vibrato
| +  harmonic
| x  Mute note
===============================================================================
            
Submit corrections

↑ Back to top | Tablatures and chords for acoustic guitar and electric guitar, ukulele, drums are parodies/interpretations of the original songs. You may use it for private study, scholarship, research or language learning purposes only