» » »

Palma Violets - Best Of Friends Tabs

Artists:  A B C D E F G H I J K L M N O P Q R S T U V W X Y Z # 

Best Of Friends Tabs

(ver. 2) Click to play this song!
Palma Violets
 Rating:
4/5 (4 votes)

 Best Of Friends lessons Tabs too difficult? Try these video lessons and learn fast
 
                
Tuning: standard


Intro

e|-----------------------5-5----3----|
B|---5-------5-------5-5-5-5----3----|
G|-5---5-5-5---5-5-5---5-5-5-xx-4-xx-|
D|-5---5---5---5---5---5-7-7-xx-5-xx-|  x8
A|-3---3---3---3---3---3-7-7-xx-5-xx-|
E|-----------------------5-5-xx-3-xx-|


Verse 

e|-----------------------5-5-xx-3-xx-|
B|-5---------------------5-5-xx-3-xx-|
G|-5---------------------5-5-xx-4-xx-|
D|-5---------------------7-7-xx-5-xx-|  x8
A|-3---------------------7-7-xx-5-xx-|
E|-----------------------5-5-xx-3-xx-|


Chorus

e|-1111111111111111----------33333333-|
B|-1111111111111111-55555555-33333333-|
G|-2222222222222222-55555555-44444444-|
D|-3333333333333333-55555555-55555555-|  x3 
A|-3333333333333333-33333333-55555555-|
E|-1111111111111111----------33333333-|


Middle

e|---------------------------------|
B|---------------------------------|
G|-5-------------5---5-5-----------|
D|-5-------------5---5-5-5---------|
A|-3---3-5-7-8-7-3---3-3-3-8-7-5-7-|
E|---------------------------------|


Verse (same as former)


Chorus (same as former)


Solo

e|-----------------------------------------------------------------|
B|-10-10-10-10--8-------10---10-8----------------------------------|
G|-----------------9-7------------9-7-9-9-9-9--9-9-9-10--9-9-7-7-5-|
D|-----------------------------------------------------------------|
A|-----------------------------------------------------------------|
E|-----------------------------------------------------------------|

e|-----------------------------------------------------------|
B|-10-10--8-------10---10-8----------------------------------|
G|-----------9-7------------9-7-9-9-9-9--9-9-9-10--9-9-7-7-5-|
D|-----------------------------------------------------------|
A|-----------------------------------------------------------|
E|-----------------------------------------------------------|

e|----------------------------------------------------------------------------------------------|
B|----------------------------------------------------------------------------------------------|
G|----------------------------------------------------------------------------------------------|
D|-5-5-5-55-7-7-7-77-9-9-9-99-10-10-10-1010-12-12-12-1212-14-14-14-1414-15-15-15-15-15-15-15-15-|
A|-x-x-x-xx-x-x-x-xx-x-x-x-xx-x--x--x--x-x--x--x--x--x-x--x--x--x--x-x--x--x--x--x--x--x--x--x--|
E|-3-3-3-33-5-5-5-55-7-7-7-77-8--8--8--8-8--10-10-10-1010-12-12-12-1212-13-13-13-13-13-13-13-13-|


Chorus (same as former)


Outro

e|-3-3-3-3--5-5--5-5-7--7-7-8--8-8-8-10-10-10-10-12-12-12-12-13-13-13-13-13-12-10\-|
B|---------------------------------------------------------------------------------|
G|---------------------------------------------------------------------------------|
D|---------------------------------------------------------------------------------|
A|---------------------------------------------------------------------------------|
E|---------------------------------------------------------------------------------|

e|----------------------------------------------------------------------------------------------|
B|----------------------------------------------------------------------------------------------|
G|----------------------------------------------------------------------------------------------|
D|-5-5-5-55-7-7-7-77-9-9-9-99-10-10-10-1010-12-12-12-1212-14-14-14-1414-15-15-15-15-15-15-15-15-|
A|-x-x-x-xx-x-x-x-xx-x-x-x-xx-x--x--x--x-x--x--x--x--x-x--x--x--x--x-x--x--x--x--x--x--x--x--x--|
E|-3-3-3-33-5-5-5-55-7-7-7-77-8--8--8--8-8--10-10-10-1010-12-12-12-1212-13-13-13-13-13-13-13-13-|

e|----|
B|-5--|
G|-5--|
D|-5--| let ring
A|-3--|
E|----|


************************************

| /   slide up
| \   slide down
| h   hammer-on
| p   pull-off
| ~   vibrato
| +   harmonic
| x   Mute note
| b   Bend
| pb  Pre-bend
| br  Bend release
| pbr Pre-bend release
| brb Bend release bend

************************************
            
Submit corrections


        Best Of Friends lessons Hard to play? Try these video lessons and learn fast Best Of Friends lessons
        
↑ Back to top | Tablatures and chords for acoustic guitar and electric guitar, ukulele, drums are parodies/interpretations of the original songs. You may use it for private study, scholarship, research or language learning purposes only