Home » O » Ozzy »

Ozzy - Iron Man Tabs

Artists:  A B C D E F G H I J K L M N O P Q R S T U V W X Y Z # 

Iron Man Tabs

(ver. 2) Click to play this song!
Ozzy
 
Solo 1:
|------------------------------------------------------------
|---------------------------------5----------5-5-------------
|-------------------------4-4-4h6---6--6p4-------6p4---4h6---
|-----2-2h4-4p2---2-4-4/6------------------6---------6-------
|-2-4-----------4--------------------------------------------
|------------------------------------------------------------
 
|-------------9-----------------------------------9---------------
|-------------9--12p9-----9-------------------------129----9-129--
|-6---11-11^----------11----9-9^------------9-11^------119--------
|---------------------------------11-9-9h11-----------------------
|-----------------------------------------------------------------
|-----------------------------------------------------------------
 
|----------------9-12^----9--------12^---12^^12---12^^12-129----9------- --
|----9-129-----9---12^------12-9-9---------------------------12---12-12^ --
|-11-------119---------------------------------------------------------- --
|----------------------------------------------------------------------- --
|----------------------------------------------------------------------- --
|----------------------------------------------------------------------- --
 
|-----9---------9-------------------------------------------------------
|-12^---129---9---129---------------------------------------------------
|----------11---------11-11p9---9-9--------------9-9--------------9-----
|----------------------------11-----11p9----9h11-----11p9----9-11-9-9---
|----------------------------------------11---------------11------------
|-----------------------------------------------------------------------
 
|----------------------------------------------------------
|----------------------------------------------------------
|------------------------6-4-------------------------------
|-9h11-9h11-9h11-9h11--------6-5-4-2-----------------------
|------------------------------------2-2/4-4---------------
|----------------------------------------------------------
 
 
 
|----------------------------------------------------------
|----------------------------------------------------------
|----------------------------------------------------------
|----------------------------4-5-4-5p4h5p4p0---------------
|--7h5-7---5h7p5-----7h5-7---------------------------------
|----------------------------------------------------------
 
 
Solo 2:
|----------------------------------------------------------
|----------------------------------------------------------
|--------------7---7-9-9^^^--9^^^---9^^--7---7/9-----------
|------5---7/9---9-------------------------9---------------
|--6/7---7-------------------------------------------------
|----------------------------------------------------------
 
|-----------10-10h12-12^-12^-12^^-10-12p10-----10----------------------
|-8---10/12---------------------------------------12-12\10-8-11-8------
|---9--------------------------------------12---------------------9-7--
|----------------------------------------------------------------------
|----------------------------------------------------------------------
|----------------------------------------------------------------------
 
|----------------------------------------------------------
|----------------------------------------------------------
|---------------------------------7---7-9-9^^-9^^-9^^^^----
|-9\7-5--7p5----5h7-------5-7-7/9---9----------------------
|------------7------5h7------------------------------------
|----------------------------------------------------------
 
|----------------------------------------------------------
|----------------------------------------------------------
|--9^-9^^-9p7----7-----------------------------------------
|-------------9------9\7-5-7---5-7-7^^--7^^--7^^^-5--------
|----------------------------------------------------7-----
|----------------------------------------------------------
            
Submit corrections

↑ Back to top | Tablatures and chords for acoustic guitar and electric guitar, ukulele, drums are parodies/interpretations of the original songs. You may use it for private study, scholarship, research or language learning purposes only