Home » O » Ozzy »

Ozzy - Children Of The Grave Tabs

Artists:  A B C D E F G H I J K L M N O P Q R S T U V W X Y Z # 

Children Of The Grave Tabs

(ver. 1) Click to play this song!
Ozzy
INTRO

E--------------------------------------------------------------------------
B--------------------------------------------------------------------------
G--------------------------------------------------------------------------
D------------------------------------------------9-------------------------
A------------------------------------------------9-------------------------
E-----0--0-0-0-0-0--0--0-0-0-0-0--etc.--------7-end.-------------------

RIFF ONE

E----------------------------------------------------------------------
B----------------------------------------------------------------------
G----------------------------------------------------------------------
D----9-9-9-9-9-------5---4-------------------------------------------
A----9-9-9-9-9-------5---4-------------------------------------------
E----7-7-7-7-7-etc.---3---2-------------------------------------------

RIFF TWO

E---------------------------------------------------------------------
B---------------------------------------------------------------------
G---------------------------------------------------------------------
D----4/-9-----------12\-5-----------5/-7-------9/-x-----------------
A----4/-9-----------12\-5-----------5/-7-------9/-x-----------------
E----2/-7-----------10\-3-----------3/-5-------7/-x-----------------

LEAD INTO BRIDGE


E--------------------------------------------------------------------
B--------------------------------------------------------------------
G--------------------------------------------------------------------
D-----------------------2------------------------2-------------------
A--------0--2--0--1--2-----------------0--1--2------1--0----------
E--0--3--------------------------0--3--------------------------------





BRIDGE

E--------------------------------------------------------------------
B--------------------------------------------------------------------
G--------------------------------------------------------------------
D--7-----10--7------14--13----------------------------------------
A--7-----10--7------14--13----------------------------------------
E--5-------8--5------12--11-----11--12--13-14----------------------
                                                    {                      }
{I'm not sure if this part is right, where the organ leads into the repeat.
But it sounds good anyway.}



FILL ONE -- After each verse, i.e. "...peace in any way" (insert here)

E---15/16-----
B---18/19-----  --Very fast and smooth!
G---------------
D---------------
A---------------
E---------------

FLOW (In case you don't know)

Intro
Riff One
Riff two
Riff one
Riff one (with lyrics and Fill 1)
Riff two
Riff one (with lyrics and Fill 1)
Lead into Bridge
Bridge
Riff one
Riff two
Riff one (with lyrics and Fill 1)
Solo (see below)
Riff two
Outro (see below)

Okay, here's my bad idea of a solo. I did this note by note, so the flow
might not be so great. I think it sounds okay though. Sorry for the bad look
of it.

E--12--12-----12--12-----12-12-12---------------------------
 B--15^-15^----15^-15^--15^15-15-15p12------------------
 G----------------------------------------14^-12-12-14-12----12-
 D--------------------------------------------------------14----
 A--------------------------------------------------------------
 E--------------------------------------------------------------

 |------12---12------------------------------------------------12-
 |----12--15^---15p12----------------------------------------12---
 |-14^---------------14^-(12--14)--12--12--------------12-14^-----
 |-----------------------------------14--14-12-14-12h14-----------
 |----------------------------------------------------------------
 |----------------------------------------------------------------

 |------12-----------------------------------------------------------------
 |-15^------15p12----------------------------------------------------------
 |---------------14^-14-12-14--12--12--------------------------------------
 |-------------------------------14----14-12-14--12---12----------------12-
 |-------------------------------------------------14----14-12-10-12/14----
 |-------------------------------------------------------------------------

 |---------------12---------------------------------------15----
 |-------------12--15p12------------------15-12-15-12-/17-------
 |-------12-14^---------14^-12--12--14-12-----------------------
 |-12h14----------------------14--------------------------------
 |--------------------------------------------------------------
 |--------------------------------------------------------------

|-17/18p15--17/18p15--17/18p15--17/18p15-|-17p15----15-------------
|----------------------------------------------17----1715-------------------
|--------------------------------------------------------161412-1412----12-
|---------------------------------------------------------------------14----
|---------------------------------------------------------------------------
|---------------------------------------------------------------------------

 |------12----12-------------------------------12-----12----------------
 |--------15^-----15p12-------------------------15^-----15p12----------
 |-14^-----------------14^^--14--12----12-14^------------------14^^p12--
 |-------------------------14--------14---------------------------------
 |----------------------------------------------------------------------
 |----------------------------------------------------------------------

 |---------------------------------------------12--------------------
 |------------------------------------------------15p12--------------
 |-14-12----12----------------12--14-(12)-14^-----------14p12----12--
 |-------14----14p12-14-12h14---------------------------------14-----
 |-------------------------------------------------------------------
 |-------------------------------------------------------------------

 |-------------------------------------------------------------------
 |-------------------------------------------------------------------
 |---------------------------------------------------12--------------
 |-14-12-14-12----12------------------------12-12h14----14p12----
 |-------------14----1412-10-12-10-12/14---------------------7--4--
 |-------------------------------------------------------------------

 OUTRO (the annoying squeal part IMO)
 E---12--12----14--14---15--15---16--16---17--17---------
 B---15^-15^---17^-17^--18^-18^--19^-19^--20^----------
 G--------------------------------------------------------------
 D----------------------------------------------------------5---
 A----------------------------------------------------------5---
 E----------------------------------------------------------3---
            
Submit corrections

↑ Back to top | Tablatures and chords for acoustic guitar and electric guitar, ukulele, drums are parodies/interpretations of the original songs. You may use it for private study, scholarship, research or language learning purposes only