» » »

Ozzy - Goodbye To Romance Tabs

Artists:  A B C D E F G H I J K L M N O P Q R S T U V W X Y Z # 

Goodbye To Romance Tabs

(ver. 1) Click to play this song!
Ozzy
 Rating:
4/5 (4 votes)

 Goodbye To Romance lessons Tabs too difficult? Try these video lessons and learn fast
 
                INTRO
E|-----0--2-3-2p0--2-0-----0-----0------------------0-----------|
B|--3-------------------3-----3----2------2------3--------------|
G|-------------------------------------4-----0------------------|
D|--------------------------------------------------------------|
A|--------------------------------------------------------------|
E|--------------------------------------------------------------|

E|--5---------5-------5------------9------12----0--------0-----------------|
B|--7----7------------7------------10-----10----3------3---3---0p2-3/5-----|
G|--6-----------------6------------9------9-----0----0---------0p2-4/6-----|
D|--7----7------------7------------11-----11----0--------------------------|
A|--5-----------------5------------9------9-----X--------------------------|
E|----------------------------------------------3--------------------------|

E|-------------------------------------------------|
B|--7--5--3----2h3h5-------------------------------|
G|--7--6--4----2-----------------------------------|
D|-------------------------------------------------|
A|-------------------------------------------------|
E|-------------------------------------------------|

E|--5----------5----9p5-----------9-----12----0--------------------------------|
B|--7-----7--------------7--------12----10----3---0h2--3/5---7---5---3-----5---|
G|--6-----------------------6-----9-----9-----0---0h2--4/6---7---6---4-----6---|
D|--7-----7-----------------------11----11----0--------------------------------|
A|--5-----------------------------9-----9-----x--------------------------------|
E|--------------------------------------------3--------------------------------|

E|--2--------------2-------------------------------------2-------|
B|--3---3-----3/5----------------3p2---------------3-------3-----|
G|--2------2----------------2--------2-----------4---4-------4---|
D|--0---------------------2--2---------2-----------------------4-|
A|---------------------4----------------------2------------------|
E|---------------------------------------------------------------|

                                                                       
E|------------0------------0------------0----------0---0-0--0-0--|----------|  1st
B|-------3------3----------3-----3--------3---3----3---3-3--2-2--|----------|ending
G|-----4---4------4--------0---0---0--------0------0---0-0--0-0--|----------|:repeat
D|------------------4------0-----------------------2---2-2--2-2--|-----0h2--|
A|--0----------------------X-----------------------0---0-0--0-0--|-0h2------|
E|-------------------------3-------------------------------------|----------|

E|----0--2-5---3p2---2p0-----0----0---------------------------|  second ending
B|--3----------------------3----3----2h3p2-----2-----3--------|
G|------------------------------------------4------0----0-----|
D|------------------------------------------------------------|
A|------------------------------------------------------------|
E|------------------------------------------------------------|
            
Submit corrections


        Goodbye To Romance lessons Hard to play? Try these video lessons and learn fast Goodbye To Romance lessons
        
↑ Back to top | Tablatures and chords for acoustic guitar and electric guitar, ukulele, drums are parodies/interpretations of the original songs. You may use it for private study, scholarship, research or language learning purposes only