Home » O » Otis Redding »

Otis Redding - Hard To Handle Bass

Artists:  A B C D E F G H I J K L M N O P Q R S T U V W X Y Z # 

Hard To Handle Bass

(ver. 2) Click to play this song!
Otis Redding
 Rating:
4/5 (4 votes)
                HARD TO HANDLE BASS TAB

INTRO

|------------|------------|
|------0-1-3-|--1---1-----|
|--1-1-------|----4---4-1-|
|------------|------------| (x 2)

VERSE 1

|--------3---------|
|------3---3-------|
|--1-1-----------0-|
|------------1-3---| (x 8)

|------------------|------------------|------------------|------------------|
|--3-3---3---------|--3-3---3---------|--3---------------|------------------|
|------3---0-0-1-3-|------3---0-0-1-3-|------------------|------------------|
|------------------|------------------|------------------|------------------|

|----------|-1-1-----------|
|--1-1-3-3-|-----1-1-------|
|----------|---------1-----|
|----------|-----------1-3-|

VERSE 2

|--------3---------|
|------3---3-------|
|--1-1-----------0-|
|------------1-3---| (x 8)

|------------------|------------------|------------------|------------------|
|--3-3---3---------|--3-3---3---------|--3---------------|------------------|
|------3---0-0-1-3-|------3---0-0-1-3-|------------------|------------------|
|------------------|------------------|------------------|------------------|

|--1-1-------|--1-1-------|--1-1-------|--1-1-------------|
|------1-1---|------1-1---|------1-1---|------1-1---------|
|----------1-|----------1-|----------1-|----------1-----1-|
|------------|------------|------------|------------1-3---|

VERSE 3

|--------3---------|
|------3---3-------|
|--1-1-----------0-|
|------------1-3---| (x 8)

|------------------|------------------|------------------|------------------|
|--3-3---3---------|--3-3---3---------|--3---------------|------------------|
|------3---0-0-1-3-|------3---0-0-1-3-|------------------|------------------|
|------------------|------------------|------------------|------------------|

|--1-1-------|--1-1-------|--1-1-------|--1-1-------------|
|------1-1---|------1-1---|------1-1---|------1-1---------|
|----------1-|----------1-|----------1-|----------1-----1-|
|------------|------------|------------|------------1-3---|

OUTRO

|--------3---------|
|------3---3-------|
|--1-1-----------0-|
|------------1-3---| (x 4)
            
Submit corrections

↑ Back to top | Tablatures and chords for acoustic guitar and electric guitar, ukulele, drums are parodies/interpretations of the original songs. You may use it for private study, scholarship, research or language learning purposes only