Home » O » Otis Redding »

Otis Redding - Hard To Handle Tabs

Artists:  A B C D E F G H I J K L M N O P Q R S T U V W X Y Z # 

Hard To Handle Tabs

(ver. 1) Click to play this song!
Otis Redding
 Rating:
4/5 (4 votes)
                Gtr I (E A D G B E) - 'Steve Cropper - Electric Guitar'
Gtr II (E A D G B E) - 'Booker T. Jones - Piano'
Gtr III (E A D G B E) - 'Wayne Jackson & Andrew Love - Horns'


 Intro
  Q=98
  N.C.
 4/4
  Gtr II (Piano arr. for Gtr.)
  H    E S S S E  S    +H     E S S S E S
|-------------------|---------------------|
|-------------------|---------------------|
|------------7-8-10-|-(10)------8-6-8-6---|
|--------8-8--------|-------------------8-|
|------------5-6--8-|--(8)------6-4-6-4---|
|--------6-6--------|-------------------6-|


         Gtr III (Horns arr. for Gtr.)
  +H     E  S  S  S  E  S    +H     E  S S  S E.
|----------------10-11-13-|-(13)------11-9-11-9--||
|----------11-11----------|----------------------||
|-----------------7--8-10-|-(10)-------8-6--8-6--||
|-(8)-------8--8----------|----------------------||
|-------------------------|----------------------||
|-(6)---------------------|----------------------||


   1st - 3rd Verses
    $
    Bb7
    Gtr I (El. Gtr.)
     e E S S S S S S S S S S S S     e  E S S S S S  S  S  S S S S S
||-------------------------------|-----------------------------------|
||o--9-x-9-9---x-x-9-x-x-x-9-9-9-|---9--x-9-9-x-x-x--9--9--9-x-x-8-x-|
||---7-x-7-7---x-x-7-x-x-x-7-7-7-|---7--x-7-7-x-x-x-10-10-10-x-x-8-x-|
||---8-x-8-8---x-x-8-x-x-x-8-8-8-|---8--x-8-8-x-x-x------------------|
||o------------------------------|-----------------------------------|
||-------------------------------|-----------------------------------|
|
|   Gtr III
|    W                              +W
||--18---------------------------|-(18)------------------------------|
||o------------------------------|-----------------------------------|
||--15---------------------------|-(15)------------------------------|
||-------------------------------|-----------------------------------|
||o------------------------------|-----------------------------------|
||-------------------------------|-----------------------------------|


  e E S S S S S S S S S S S S   e E S S S S S  S  S  S S S S S
|-----------------------------|---------------------------------|
|-9-x-9-9---x-x-9-x-x-x-9-9-9-|-9-x-9-9-x-x-x--9--9--9-x-x-8-x--|
|-7-x-7-7---x-x-7-x-x-x-7-7-7-|-7-x-7-7-x-x-x-10-10-10-x-x-8-x--|
|-8-x-8-8---x-x-8-x-x-x-8-8-8-|-8-x-8-8-x-x-x-------------------|
|-----------------------------|---------------------------------|
|-----------------------------|---------------------------------|


  e E S S S S S S S S S S S S   e E S S S S S  S  S  S S S S S
|-----------------------------|---------------------------------|
|-9-x-9-9---x-x-9-x-x-x-9-9-9-|-9-x-9-9-x-x-x--9--9--9-x-x-8-x--|
|-7-x-7-7---x-x-7-x-x-x-7-7-7-|-7-x-7-7-x-x-x-10-10-10-x-x-8-x--|
|-8-x-8-8---x-x-8-x-x-x-8-8-8-|-8-x-8-8-x-x-x-------------------|
|-----------------------------|---------------------------------|
|-----------------------------|---------------------------------|


  e E S S S S S S S S S S S S   e E S S S S S  S  S  S S S S S
|-----------------------------|---------------------------------|
|-9-x-9-9---x-x-9-x-x-x-9-9-9-|-9-x-9-9-x-x-x--9--9--9-x-x-8-x--|
|-7-x-7-7---x-x-7-x-x-x-7-7-7-|-7-x-7-7-x-x-x-10-10-10-x-x-8-x--|
|-8-x-8-8---x-x-8-x-x-x-8-8-8-|-8-x-8-8-x-x-x-------------------|
|-----------------------------|---------------------------------|
|-----------------------------|---------------------------------|


  F7
  E  e S S S  S S  S S  S  S S S S
|----------------------------------|
|----------------------------------|
|-8--8-8-8-x--x-8--8-x--8--x-8-8-8-|
|-7--7-7-7-x--x-7--7-x--7--x-7-7-7-|
|-8--8-8-8-x--x-8--8-x--8--x-8-8-8-|
|----------------------------------|
|
| Gtr III
| Q.       S  S S  S S  S  E   E
|----------------------------------|
|-6----------10---11---11-13-------|
|----------------------------------|
|-3-----------7----8----8-10-------|
|----------------------------------|
|----------------------------------|


  E  e S S S  S S  S S  S  S S S S   e E Q  H
|----------------------------------|-------------|
|----------------------------------|-------------|
|-8--8-8-8-x--x-8--8-x--8--x-8-8-8-|-8-----------|
|-7--7-7-7-x--x-7--7-x--7--x-7-7-7-|-7-----------|
|-8--8-8-8-x--x-8--8-x--8--x-8-8-8-|-8-----------|
|----------------------------------|-------------|
|
| Q.       S  S S  S S  S  E   E     W
|----------------------------------|-------------|
|-6----------10---11---11-13-------|-------------|
|----------------------------------|-------------|
|-3-----------7----8----8-10-------|-------------|
|----------------------------------|-------------|
|----------------------------------|-------------|


            1.
To Coda
  N.C.       Eb              F
  W          E  E    E     S  S  +E      E     E     E
|----------|---------------------------------------------|
|----------|-8-------8-------10-(10)----------10---------|
|----------|-8-------8-------10-(10)----------10---------|
|----------|-8-------8-----x-10-(10)----------10---------|
|----------|-6-------6-----x--8--(8)-----------8---------|
|----------|---------------------------------------------|
|
| W          E  S  S S  S  S  S   S   S  S  S  S  S  S S
|----------|---------------------------------------------|
|----------|---16-16---16-16---------18-18-18----18-18---|
|----------|---------------------------------------------|
|----------|---13-13---13-13---------15-15-15----15-15---|
|----------|---------------------------------------------|
|----------|---------------------------------------------|


        Eb        Bb
   e  S  S +E      E  +H
|------------------6--(6)-----||
|-10-10--8-(8)-----6--(6)----o||
|-10-10--8-(8)-----7--(7)-----||
|-10-10--8-(8)-----8--(8)-----||
|--8--8--6-(6)---------------o||
|-----------------------------||
|
|  e  S  S  S   S  E  +H
|-16-16-11-----11-------------||
|-----------------11-(11)----o||
|-13-13--8------8-------------||
|------------------8--(8)-----||
|----------------------------o||
|-----------------------------||


  2.
  Ab  Eb      Bb                     Ab     Eb      Bb
  E S S +S  S E +H                     E  S S +S  S E +H
|----------------------------------|---------------------------------------|
|-4-x-8-(8)-8-6-(6)----------------|---4--x-8-(8)-8-6-(6)------------------|
|-5-x-8-(8)-8-7-(7)----------------|---5--x-8-(8)-8-7-(7)------------------|
|-6-x-8-(8)-8-8-(8)----------------|---6--x-8-(8)-8-8-(8)------------------|
|-6-x-6-(6)-6-8-(8)----------------|---6--x-6-(6)-6-8-(8)------------------|
|-4-----------6-(6)----------------|---4------------6-(6)------------------|
|
| H              E   S  S  S  E  S    +H               S   S  S  S  S S  E
|----------------------------------|---------------------------------------|
|-------------------11-11-15-16-18-|-(18)-------------16--14-16-14-11-9-11-|
|----------------------------------|---------------------------------------|
|--------------------8--8-12-13-15-|-(15)-------------13--11-13-11--8-6--8-|
|----------------------------------|---------------------------------------|
|----------------------------------|---------------------------------------|


  Ab     Eb      Bb
    E  S S +S  S  E    +H
|----------------------------------------|
|---4--x-8-(8)-8--6----(6)---------------|
|---5--x-8-(8)-8--7----(7)---------------|
|---6--x-8-(8)-8--8----(8)---------------|
|---6--x-6-(6)-6--8----(8)---------------|
|---4-------------6----(6)---------------|
|
|  +Q       E     S  S  S   E  S  +Q
|-----------------------------18-(18)----|
|-(11)-----------11-11-15--16------------|
|-----------------------------15-(15)----|
|--(8)------------8--8-12--13------------|
|----------------------------------------|
|----------------------------------------|


             D.S. al Coda   &
  Ab    Eb        Bb           Ab  Eb      Bb
   E  S  S  +S  S  E +H        E S S +S  S E +H
|---------------------------||----------------------------------|
|--4--x--8--(8)-8--6-(6)----||-4-x-8-(8)-8-6-(6)----------------|
|--5--x--8--(8)-8--7-(7)----||-5-x-8-(8)-8-7-(7)----------------|
|--6--x--8--(8)-8--8-(8)----||-6-x-8-(8)-8-8-(8)----------------|
|--6--x--6--(6)-6--8-(8)----||-6-x-6-(6)-6-8-(8)----------------|
|--4---------------6-(6)----||-4-----------6-(6)----------------|
|
|  E.    S  +E     e  H        H              E   S  S  S  E  S
|-16------------------------||----------------------------------|
|-------16-(16)-------------||-------------------11-11-15-16-18-|
|-13--------------15--------||----------------------------------|
|-------13-(13)-------------||--------------------8--8-12-13-15-|
|-----------------13--------||----------------------------------|
|---------------------------||----------------------------------|


  Ab     Eb      Bb
    E  S S +S  S E +H
|-----------------------------------------|
|---4--x-8-(8)-8-6-(6)--------------------|
|---5--x-8-(8)-8-7-(7)--------------------|
|---6--x-8-(8)-8-8-(8)--------------------|
|---6--x-6-(6)-6-8-(8)--------------------|
|---4------------6-(6)--------------------|
|
|  +H               S   S  S  S  S  S  E
|-----------------------------------------|
|-(18)-------------16--14-16-14-11----11--|
|----------------------------------13-----|
|-(15)-------------13--11-13-11--8-----8--|
|----------------------------------11-----|
|-----------------------------------------|


  Ab     Eb      Bb                      Ab    Eb        Bb
    E  S S +S  S  E    +H                 E  S  S  +S  S  E  +H
|--------------------------------------|------------------------------||
|---4--x-8-(8)-8--6----(6)-------------|--4--x--8--(8)-8--6--(6)------||
|---5--x-8-(8)-8--7----(7)-------------|--5--x--8--(8)-8--7--(7)------||
|---6--x-8-(8)-8--8----(8)-------------|--6--x--8--(8)-8--8--(8)------||
|---6--x-6-(6)-6--8----(8)-------------|--6--x--6--(6)-6--8--(8)------||
|---4-------------6----(6)-------------|--4---------------6--(6)------||
|
|  +Q       E     S  S  S   E  S  +Q      E.    S  +E     E  +E  E Q
|-----------------------------18-(18)--|-16---------------------------||
|-(11)-----------11-11-15--16----------|-------16-(16)----------------||
|-----------------------------15-(15)--|-13--------------15-(15)------||
|--(8)------------8--8-12--13----------|-------13-(13)----------------||
|--------------------------------------|-----------------13-(13)------||
|--------------------------------------|------------------------------||


 Outro
  Bb7
   e     E    S  S  S  S S  S  S  S   S  S S S
|-----------------------------------------------|
|--9-----x----9--9--x--x-x--9--x--x---x--9-9-x--|
|--7-----x----7--7--x--x-x--7--x--x---x--7-7-x--|
|--8-----x----8--8--x--x-x--8--x--x---x--8-8-x--|
|-----------------------------------------------|
|-----------------------------------------------|
|
|  S  S  S  S S  S  S  S S  S  S  S  +S  S E
|-----------------------------------------------|
|-----------------------------------------------|
|-15-15-15-15---15-15-15---15-15-15-(15)--------|
|-----------------------------------------------|
|-13-13-13-13---13-13-13---13-13-13-(13)--------|
|-----------------------------------------------|


   e     E    S  S  S  S S  S  S  S   S  S S S
|----------------------------------------------|
|--9-----x----9--9--x--x-x--9--x--x---x--9-9-x-|
|--7-----x----7--7--x--x-x--7--x--x---x--7-7-x-|
|--8-----x----8--8--x--x-x--8--x--x---x--8-8-x-|
|----------------------------------------------|
|----------------------------------------------|
|
|  S  S  S  S S  S  S  S S  S  S  S  +E    E
|----------------------------------------------|
|----------------------------------------------|
|-15-15-15-15---15-15-15---15-15-15-(15)-------|
|----------------------------------------------|
|-13-13-13-13---13-13-13---13-13-13-(13)-------|
|----------------------------------------------|


   e     E    S  S  S  S S  S  S  S   S  S S S
|----------------------------------------------|
|--9-----x----9--9--x--x-x--9--x--x---x--9-9-x-|
|--7-----x----7--7--x--x-x--7--x--x---x--7-7-x-|
|--8-----x----8--8--x--x-x--8--x--x---x--8-8-x-|
|----------------------------------------------|
|----------------------------------------------|
|
|  S  S  S  S S  S  S  S S  S  S  S  +E    E
|----------------------------------------------|
|----15-15-15---15-15-15---15-15-15-(15)-------|
|-15-------------------------------------------|
|----12-12-12---12-12-12---12-12-12-(12)-------|
|-13-------------------------------------------|
|----------------------------------------------|


   e     E    S  S  S  S S  S  S  S   S  S S S
|----------------------------------------------|
|--9-----x----9--9--x--x-x--9--x--x---x--9-9-x-|
|--7-----x----7--7--x--x-x--7--x--x---x--7-7-x-|
|--8-----x----8--8--x--x-x--8--x--x---x--8-8-x-|
|----------------------------------------------|
|----------------------------------------------|
|
|  S  S  S  S S  S  S  S S  S  S  S  +E    E
|----18-18-18---18-18-18---18-18-18-(18)-------|
|-18-------------------------------------------|
|----15-15-15---15-15-15---15-15-15-(15)-------|
|-15-------------------------------------------|
|----------------------------------------------|
|----------------------------------------------|


   e     E    S  S  S  S S  S  S  S   S  S S S
|----------------------------------------------*|
|--9-----x----9--9--x--x-x--9--x--x---x--9-9-x-*|
|--7-----x----7--7--x--x-x--7--x--x---x--7-7-x-*|
|--8-----x----8--8--x--x-x--8--x--x---x--8-8-x-*|
|----------------------------------------------*|
|----------------------------------------------*|
|
|  S  S  S  S S  S  S  S S  S  S  S  +E    E
|----18-18-18---18-18-18---18-18-18-(18)-------*|
|-18-------------------------------------------*|
|----15-15-15---15-15-15---15-15-15-(15)-------*|
|-15-------------------------------------------*|
|----------------------------------------------*|
|----------------------------------------------*|            
Submit corrections

↑ Back to top | Tablatures and chords for acoustic guitar and electric guitar, ukulele, drums are parodies/interpretations of the original songs. You may use it for private study, scholarship, research or language learning purposes only