Home » O » Otis Redding »

Otis Redding - Hard To Handle Bass

Artists:  A B C D E F G H I J K L M N O P Q R S T U V W X Y Z # 

Hard To Handle Bass

(ver. 1) Click to play this song!
Otis Redding
 Rating:
4.2/5 (5 votes)
                -------------------------------------------------------------------------------
			 "Hard To Handle" - Otis Redding
-------------------------------------------------------------------------------


Tuning:Standard

Intro:

G|-------------------------------------------------------------------------|
D|---------0----------------------------0----------------------------------|
A|------------6-8----8---4-6-4-----------6-8--------8---4-6-4--------------|
E|----6-6------------------------6---6-------------------------------------|

Verse:

G|---------3----------------------3----------------------------------------|
D|-------3----------------------3---3--------------------------------------|
A|-1--1-------------------1-1----------------------------------------------|
E|-------------1--3--5-------------------1----3----5-----------------------|

That's about it. Not 100% but not bad
            
Submit corrections

↑ Back to top | Tablatures and chords for acoustic guitar and electric guitar, ukulele, drums are parodies/interpretations of the original songs. You may use it for private study, scholarship, research or language learning purposes only