Home » O » One Direction »

One Direction - No Control Tabs

Artists:  A B C D E F G H I J K L M N O P Q R S T U V W X Y Z # 

No Control Tabs

(ver. 2) Click to play this song!
One Direction
    E    B   C#m    A
E- -7-  -7-  -9--  -5-
B- -9-  -7-  -9--  -5-
G- -9-  -8-  -9--  -6-
D- -9-  -9-  -11-  -7-
A- -7-  -9-  -11-  -7-
E- -7-  -7-  -9--  -5-

Intro + Verse E B C#m A (It's best to use bar chords here, but using normal chords and the same rhythm 
                         also works too)
e|---------------------------------------------------------------------|
B|---------------------------------------------------------------------|
G|---9-9-9-9-----------------------9---9-9-9-9-----------------------9-|    
D|---9-9-9-9-----9-11-11-11----7---9---9-9-9-9-----9-11-11-11-----7--9-|   x11
A|---7-7-7-7-----9-11-11-11----7---7---7-7-7-7-----9-11-11-11-----7--7-|  
E|---------------7-9--9--9-----5-------------------7-9--9--9------5----|
   1 + 2 + 3 + 4 + 1  +  2 + 3 + 4 + 1 + 2 + 3 + 4 + 1  +  2 + 3 + 4 +
 
  Chorus A B E C#m (Just the chords, bar or normal. OR something along these lines are playing.)
e|-9-9-9-9-9-------------------------------------------------------|
B|-----------12-9--------------------------------------------------|
G|----------------13-13-13-13-13-11--------------------------------|
D|-----------------------------------------------------------------|
A|-----------------------------------------------------------------|
E|-----------------------------------------------------------------|

 Interlude (Same as intro and verse)
e|---------------------------------------------------------------------|
B|---------------------------------------------------------------------|
G|---9-9-9-9-----------------------9---9-9-9-9-----------------------9-|    
D|---9-9-9-9-----9-11-11-11----7---9---9-9-9-9-----9-11-11-11-----7--9-|   
A|---7-7-7-7-----9-11-11-11----7---7---7-7-7-7-----9-11-11-11-----7--7-|  
E|---------------7-9--9--9-----5-------------------7-9--9--9------5----|
   1 + 2 + 3 + 4 + 1  +  2 + 3 + 4 + 1 + 2 + 3 + 4 + 1  +  2 + 3 + 4 +
  Verse
e|---------------------------------------------------------------------|
B|---------------------------------------------------------------------|
G|---9-9-9-9-----------------------9---9-9-9-9-----------------------9-|    
D|---9-9-9-9-----9-11-11-11----7---9---9-9-9-9-----9-11-11-11-----7--9-|  
A|---7-7-7-7-----9-11-11-11----7---7---7-7-7-7-----9-11-11-11-----7--7-|  
E|---------------7-9--9--9-----5-------------------7-9--9--9------5----|
   1 + 2 + 3 + 4 + 1  +  2 + 3 + 4 + 1 + 2 + 3 + 4 + 1  +  2 + 3 + 4 +
  Chorus A B E C#m

  Bridge A B E C#m

Rest

  Chorus [2:34]
Just singing             
Submit corrections

↑ Back to top | Tablatures and chords for acoustic guitar and electric guitar, ukulele, drums are parodies/interpretations of the original songs. You may use it for private study, scholarship, research or language learning purposes only