Home » O » One Direction »

One Direction - No Control Tabs

Artists:  A B C D E F G H I J K L M N O P Q R S T U V W X Y Z # 

No Control Tabs

(ver. 1) Click to play this song!
One Direction
    E    Bm   C     A
E- ---  ---  ----  ---
B- ---  ---  ----  ---
G- -9-  ---  ----  ---
D- -9-  -9-  -11-  -7-
A- -7-  -9-  -11-  -7-
E- ---  -7-  -9--  -5-



Intro
E----------------------|
B----------------------|
G-------------------7--|   4x
D----------------------|
A-7-7-7-7-------------7|
E---------7-9-9-9-9----|

You can start strumming the verse chords the second time ^


Verse: E Bm C A

Chorus: A Bm E C 

Bridge: A Bm E C            
Submit corrections

↑ Back to top | Tablatures and chords for acoustic guitar and electric guitar, ukulele, drums are parodies/interpretations of the original songs. You may use it for private study, scholarship, research or language learning purposes only