Home » O » Oasis »

Oasis - Wonderwall Tabs

Artists:  A B C D E F G H I J K L M N O P Q R S T U V W X Y Z # 

Wonderwall Tabs

(ver. 6) Click to play this song!
Oasis
 Rating:
4.4/5 (7 votes)
                [Intro]
   1 + 2 + 3 + 4 +   1 + 2 + 3 + 4 + 
e|-0---0---0-0-0-0-|-0---0---0-0-0-0-|
B|-3---3---3-3-3-3-|-3---3---3-3-3-3-|
G|-0---0---0-0-0-0-|-2---2---2-2-2-2-|
D|-2---2---0-0-0-0-|-0---0---2-2-2-2-|
A|-2---2---2-2-2-2-|-0---0---0-0-0-0-|
E|---------3-3-3-3-|-----------------| (x4)

[Verse]
   1 + 2 + 3 + 4 +   1 + 2 + 3 + 4 + 
e|-0---0---0-0-0-0-|-0---0---0-0-0-0-|
B|-3---3---3-3-3-3-|-3---3---3-3-3-3-|
G|-0---0---0-0-0-0-|-2---2---2-2-2-2-|
D|-2---2---0-0-0-0-|-0---0---2-2-2-2-|
A|-2---2---2-2-2-2-|-0---0---0-0-0-0-|
E|---------3-3-3-3-|-----------------| (x8)

[Pre-Chorus]
   1 + 2 + 3 + 4 +   1 + 2 + 3 + 4 +   1 + 2 + 3 + 4 +   1 + 2 + 3 + 4 + 
e|-0-0-0-0-0-0-0-0-|-0-0-0-0-0-0-0-0-|-0-0-0-0-0-0-0---|-0-0-0-0-0-0-0-0-|
B|-3-3-3-3-3-3-3-3-|-3-3-3-3-3-3-3-3-|-3-3-3-3-3-3-3---|-3-3-3-3-3-3-3-3-|
G|-0-0-0-0-0-0-0-0-|-0-0-0-0-0-0-0-0-|-0-0-0-0-0-0-0---|-0-0-0-0-0-0-0-0-|
D|-2-2-0-0-2-2-2-2-|-2-2-0-0-2-2-2-2-|-2-2-0-0-2-2-0---|-2-2-2-2-2-2-2-2-|
A|-3-3-2-2-0-0-0-0-|-3-3-2-2-0-0-0-0-|-3-3-2-2-0-3-2---|-0-0-0-0-0-0-0-0-|
E|-----3-3---------|-----3-3---------|-----3-3-----3---|-----------------|

[Chorus]
   1 + 2 + 3 + 4 +   1 + 2 + 3 + 4 +
e|-0---0---0-0-0-0-|-0---0---0-0-0-0-|
B|-3---3---3-3-3-3-|-3---3---3-3-3-3-|
G|-0---0---0-0-0-0-|-2---2---0-0-0-0-|
D|-2---2---0-0-0-0-|-0---0---2-2-2-2-|
A|-3---3---2-2-2-2-|-0---0---0-0-0-0-|
E|---------3-3-3-3-|-----------------| (x2)

[Verse]
   1 + 2 + 3 + 4 +   
e|-0-0-0-0-0-0-0-0-| 
B|-3-3-3-3-3-3-3-3-| 
G|-2-2-2-2-2-2-2-2-| 
D|-2-2-2-2-2-2-2-2-| 
A|-0-0-0-0-0-0-0-0-| 
E|-----------------|                
                    
   1 + 2 + 3 + 4 +   1 + 2 + 3  + 4 +
e|-0---0---0-0-0-0-|-0---0---0-0-0-0-|
B|-3---3---3-3-3-3-|-3---3---3-3-3-3-|
G|-0---0---0-0-0-0-|-2---2---2-2-2-2-|
D|-2---2---0-0-0-0-|-0---0---2-2-2-2-|
A|-2---2---2-2-2-2-|-0---0---0-0-0-0-|
E|---------3-3-3-3-|-----------------| (x8)
 
[Pre-Chorus]
   1 + 2 + 3 + 4 +   1 + 2 + 3 + 4 +   1 + 2 + 3 + 4 +   1 + 2 + 3 + 4 + 
e|-0-0-0-0-0-0-0-0-|-0-0-0-0-0-0-0-0-|-0-0-0-0-0-0-0---|-0-0-0-0-0-0-0-0-|
B|-3-3-3-3-3-3-3-3-|-3-3-3-3-3-3-3-3-|-3-3-3-3-3-3-3---|-3-3-3-3-3-3-3-3-|
G|-0-0-0-0-0-0-0-0-|-0-0-0-0-0-0-0-0-|-0-0-0-0-0-0-0---|-0-0-0-0-0-0-0-0-|
D|-2-2-0-0-2-2-2-2-|-2-2-0-0-2-2-2-2-|-2-2-0-0-2-2-0---|-2-2-2-2-2-2-2-2-|
A|-3-3-2-2-0-0-0-0-|-3-3-2-2-0-0-0-0-|-3-3-2-2-0-3-2---|-0-0-0-0-0-0-0-0-|
E|-----3-3---------|-----3-3---------|-----3-3-----3---|-----------------|

[Chorus]
   1 + 2 + 3 + 4 +   1 + 2 + 3 + 4 +
e|-0---0---0-0-0-0-|-0---0---0-0-0-0-|
B|-3---3---3-3-3-3-|-3---3---3-3-3-3-|
G|-0---0---0-0-0-0-|-2---2---0-0-0-0-|
D|-2---2---0-0-0-0-|-0---0---2-2-2-2-|
A|-3---3---2-2-2-2-|-0---0---0-0-0-0-|
E|---------3-3-3-3-|-----------------| (x8)

[Outro]
   1 + 2 + 3 + 4 +   1 + 2 + 3 + 4 + 
e|-0---0---0-0-0-0-|-0---0---0-0-0-0-|
B|-3---3---3-3-3-3-|-3---3---3-3-3-3-|
G|-0---0---0-0-0-0-|-2---2---2-2-2-2-|
D|-2---2---0-0-0-0-|-0---0---2-2-2-2-|
A|-2---2---2-2-2-2-|-0---0---0-0-0-0-|
E|---------3-3-3-3-|-----------------| (x4)            
Submit corrections

↑ Back to top | Tablatures and chords for acoustic guitar and electric guitar, ukulele, drums are parodies/interpretations of the original songs. You may use it for private study, scholarship, research or language learning purposes only