» » »

Oasis - Be Here Now Tabs

Artists:  A B C D E F G H I J K L M N O P Q R S T U V W X Y Z # 

Be Here Now Tabs

(ver. 1) Click to play this song!
Oasis
 Rating:
4.3/5 (6 votes)
                ---------------------------------
 OASIS-All About The Music-OASIS
---------------------------------

'Be Here Now'

Words and music by
Noel Gallagher



Chords Used:
A5     (577xxx)
A6     (59xxxx)
A7     (5 10xxxx)
Bb5    (688xxx)
B5     (799xxx)
B6     (7 11xxx)
B7     (7 12xxx)
C#5    (9 11 11xxx)
E6     (04xxxx)
E7     (05xxxx)
G5     (355xxx)

Noels main guitar riff, played throughout
E------------------------         E-------------------------|
B------------------------    1st  B-------------------------|
G--10s9--7h8-------------x3  time G-----7----------------7--|
D--10s9-------9--7--9--7-         D--9-----9----7----9------|
A------------------------         A-------------------------|
E------------------------         E-------------------------|

     E--------------------------|
2nd  B--------------------------|
time G--9b----r7----7-----7-----|
     D-----------9-----9-----9--|
     A--------------------------|
     E--------------------------|
B5
Wash you face in the morining sun,
                      C#5           A5
flash your pan at the song that I'm singing.
Touch down base livin' on the run,
I make no sweat of the hole that you're digging

(Noel whistles)

Wrap up cold when it's warm outside,
your sh*t jokes remind me of Digsy's.
Be my magic carpet ride,
fly me down to capitol city, in the sun.

(Noel whistles)

E5                          G5            A5
Kicking up storm. E---------------------------------------|
                  B--8--10--10b--r10--8--10-----8b--------|
                  G------------------------------------9--|
                  D---------------------------------------|
                  A---------------------------------------|
                  E---------------------------------------|
          E5
E5                  G5             A5
Sing a song for me, one from 'Let It Be'.

E--------------------------------------------|
B--8--10--10b--r10--8--10------8------10b~---|
G--------------------------------------------|
D--------------------------------------------|
A--------------------------------------------|
E--------------------------------------------|
G5                       A5           Bb5         B5
Open up your eyes, get a grip of yourself inside.

(repeat above throughout)

So wash your face in the morining sun,
flash your pan at the song that I'm singing.
Touch down base livin' on the ground,
make no sweat of the hole that youre digging

Kicking up a storm. From the day that I was born.
Sing a song for me, one from 'Let It Be'.
Open up your eyes, get a grip of yourself inside.

Middle Solo (chords= B5 B6 B5 B6 B5  A5 A6 A5 A6 A5  E5 E6 E5 E6 E5)
E-----------------------|
B-----------------------| a couple of times
G--6b----4---4--------4-|
D---------(6)-----4h6---|
A-----------------------|
E-----------------------|

E--------------------- E------------   E-----------------------------|
B----7---------------- B------------X2 B----7-----7-----7------------|
G--6B--6--4---------4- G--6B-B-B--4-   G--6B----6B----6B----6B----4~-|
D---------------4H6--- D------------   D-----------------------------|
A--------------------- A------------   A-----------------------------|
E--------------------- E------------   E-----------------------------|

E-----------------------------------------------------|
B--7-7-5-(4)-4-5-4-7----5--4-4-5-4-7--7-7-5---4-5-4---|
G--4-4-4-(4)-4-4-4-4----4--4-4-4-4-4--4-4-4---4-4-4-4-|
D--4-4-4-(4)-4-4-4-4----4--4-4-4-4-4--4-4-4---4-4-4---|
A-----------------------------------------------------|
E-----------------------------------------------------|

E-----------------------  You betcha G--4~~~~~~~~~~~~~~~---|
B----------------------------------------------------------|
G--6b---4----6b---4---4------------------------------------|
D---------6---------6--------------------------------------|
A----------------------------------------------------------|
E----------------------------------------------------------|

Repeat verse and chorus

Outro solo
E--------------------------------------------------------------|
B--------------------------7--7--------------------------------|
G-----------7--7-----------------9--7--------------------7--9b-|
D--7---7--9----------9-------------------9-------7---7h9-------|
A--------------------------------------------------------------|
E--------------------------------------------------------------|
cont.
E----------------------------------------------------------------|
B--10------------------------------------------------------------|
G------7----9---7---------------7-----7----------------7----7----|
D---------9---9---9----7---7h9----------9--7--9----7h9---------9-|
A----------------------------------------------------------------|
E----------------------------------------------------------------|
cont.
E--------------------------------------------------------|
B--------------------------------------------------------|  ad lib
G-------------7--------7-----------7-----------------7---|  'till end
D-7--9----7h9----7-7h9-----9p7--9----9p7h9---9--7--9-----|
A--------------------------------------------------------|
E--------------------------------------------------------|
            
Submit corrections

↑ Back to top | Tablatures and chords for acoustic guitar and electric guitar, ukulele, drums are parodies/interpretations of the original songs. You may use it for private study, scholarship, research or language learning purposes only