Home » N » Nouvelle Vague »

Nouvelle Vague - Killing Moon Tabs

Artists:  A B C D E F G H I J K L M N O P Q R S T U V W X Y Z # 

Killing Moon Tabs

(ver. 2) Click to play this song!
Nouvelle Vague
                (Intro)
-------------------------------------------------------------------------------
                             KILLING MOON - Nouvelle Vague (intro)
-------------------------------------------------------------------------------

Tuning:Standard

Description: I have been playing guitar for 4 months now. I am self taught, so This is 
my first tab, here we go. By the way it is all by ear and I hope to have the rest of the 
song up asap.

CAPO: 3rd fret All tabs are according to the capo.

e|---------------------------------------------------------------------------|
B|--0-0---0-0---0-0---0-0---0-0---0-0---0-0---0-0---0-0---0-0----------------|
G|--0-0---0-0---0-0---0-0---0-0---0-0---0-0---0-0---0-0---0-0----------------|
D|---------------------------------------------------------------------------|
A|------2-----------2-----3-----------3-----------------2--------------------|
E|0-----------0-----------------3-----------3--p2-0--------------------------|


This is what I have gotten so far. Although it is just the beginning, if you have the 
rest of the song it would be much appreciated.
 Thanks,
     Ben
            
Submit corrections

↑ Back to top | Tablatures and chords for acoustic guitar and electric guitar, ukulele, drums are parodies/interpretations of the original songs. You may use it for private study, scholarship, research or language learning purposes only